Oops, an error
Loading. Please wait.

Please Me Like You Want To tab

version 2
version 2

Whole song

Interactive

20,357 views 15 this week
no commentswrite comment
1 2 3 4 5
x 5
add to favorites
×
Save as Personal and add changes to this tab that will be seen only by you. Learn more ›
×
You can save this tab as Personal to edit and correct it or add notes. All changes will be seen only by you. Learn more »
launch autoscroll
font size
0
reset
how to read this tab
guitar tuner
edit
Autoscroll
slow
fast
+/-
esc
set tempo
stop
This Tab is from the amazing Ben Harper song Please Me Like You Want To. I used the tab by 'Frizzle' as a reference but have just altered and added to it. I Am Pretty Sure This Is Absolutely Perfect.

Tuning: D,a,d,g,b,e

Please rate it, its my first tab

By Joe W. Age 15:

Intro: (0 - 13s)
e----------------------------------------------------|
b----------------------------------------------------|(x2)
g----------------------------------------------------|
d-----4h5p4-------2h3p2-------------------4h5p4------|
a-----5-----5\3-3-3-----3p0---222h3h4/5---5-----5----|
D--0------------------------5-----------0---------0--|

Verses:(14 - 1m10s)
e--------------------------------------------|
b--------------------------------------------| (x8)
g--------------------------------------------|
d-----4h5p4----------------------------------|
a-----5-----5\3-----------3p2-----2h3p2------|
E--0-------------0h2-5-5-5----5-5-------5----|

Chorus: (1m10s - 1m45s)
e----------------------------------------------------|
b----------------------------------------------------|(x5)
g----------------------------------------------------|
d-----4h5p4-------2h3p2-------------------4h5p4------|
a-----5-----5\3-3-3-----3p0---222h3h4/5---5-----5----|
D--0------------------------5-----------0---------0--|

Solo Bit: (1m45s - 2m)
e----------------------------------------------------|
b----------------------------------------------------|(x2)
g----------------------------------------------------|
d----------------------------------------------------|
a--3/5-5-3p2-3p2-3/5-3p2---2h3/5-3p2---2h3/5-3p2-----|
D------------------------5-----------5-----------5---|

Verses: (1m45s - 2m48s) - Played Under Solo
e--------------------------------------------|
b--------------------------------------------| (x8)
g--------------------------------------------|
d-----4h5p4----------------------------------|
a-----5-----5\3------------3p2-----2h3p2-----|
E--0-------------0h2-5-5--5----5-5-------5---|

On The 9th Time You Play The Verse Rhythm It Goes Like This:
(2m48s - 2m56s)
e--------------------------------------------|
b--------------------------------------------| (x1)
g--------------------------------------------|
d-----4h5p4----------------------------------|
a-----5-----5\3------------2h3p2--2--2h3p2---|
E--0-------------0h2-5-5--5------5-5-------5-|

Verse: (2m56s - 3m09s)
e--------------------------------------------|
b--------------------------------------------| (x2)
g--------------------------------------------|
d-----4h5p4----------------------------------|
a-----5-----5\3------------3p2-----2h3p2-----|
E--0-------------0h2-5-5--5----5-5-------5---|

Chorus: (3m09s - 4m53s)- Played Under 2nd Solo
e----------------------------------------------------|
b----------------------------------------------------|(x6)
g----------------------------------------------------|
d-----4h5p4-------2h3p2-------------------4h5p4------|
a-----5-----5\3-3-3-----3p0---222h3h4/5---5-----5----|
D--0------------------------5-----------0---------0--|

Solo Part 2: (3m51s - 4m35s) - There Are Long Pauses Between Each Part 
e--------------x-x-x-~~~-----------------------x-x-x-~~~------|
b--------------3-3-3-~~~-----------------------3-3-3-~~~------|
g--------------2-2-2-~~~-----------------------2-2-2-~~~------|
d--------------0-0-0-~~~--5bup3-5/7-5/3-3~~~---0-0-0-~~~------|
a--3h5-5~~~----x-x-x-~~~-----------------------x-x-x-~~~------|
D--------------x-x-x-~~~-----------------------x-x-x-~~~------|

Final Outro: (4m47s - 4m53s)
e----------------------------------------------------|
b----------------------------------------------------|
g----------------------------------------------------|
d----------------------------------------------------|
a----------3-5----0-3-5-3-5~~~-----------------------|
D--0-3-5-3-------------------------------------------|


Symbols Used In This Tab:

h = Hammer
p = Pull Off
/ = Slide Up
\ = Slide Down
Bup = Pull Off Whilst Bent Up
~~~ = Vibrate The Note

Lyrics:

Don't do me any favors
matter of fact why don't you
do yourself a few

your presence ain't nobody's blessing
I've got plenty of other things
I could do

oh no, not another excuse
your tired silly games
for me are just no use

and now it's plain for me to see
you're with somebody
that you don't want to be

so won't you
please please me like you want to
not like you have to
or won't you just go on and leave me
leaving me is the least that you could do

you could have spared me
so much misery
and told me you just wanted
a friend

believe me there is a difference
when you mean it
and when you pretend

or was I just your habit
cause I know a habit
is a hard thing to break

but won't you spare me
a little mercy
there's only so much
so much that I can take

so won't you
please please me like you want to
not like you have to
or won't you just go on and leave me
leaving me is the least that you could do




            
            
Suggest correction
Creating personal tab
Creating personal tab
You can edit any tab online and save it as your Personal.

You can edit, replace or remove any tab part or add personal notes – all changes will be seen only by you.

Personal tabs can be accessed anytime from any device, even offline.
Learn more »
comments
print report bad tab
guest
Wanna post a correction for this tab? Suggest correction