Oops, an error
Loading. Please wait.

Conrad tab

version 1
version 1

Whole song

29,909 views 120 this week
5 commentsread comments
1 2 3 4 5
x 19
add to favorites
×
Save as Personal and add changes to this tab that will be seen only by you. Learn more ›
×
You can save this tab as Personal to edit and correct it or add notes. All changes will be seen only by you. Learn more »
launch autoscroll
font size
0
reset
how to read this tab
guitar tuner
edit
Autoscroll
slow
fast
+/-
esc
set tempo
stop
-------------------------------------------------------------------------------
                             CONRAD - Ben Howard
-------------------------------------------------------------------------------
Tabbed by:
E-mail:

Tuning: DADGBe

Capo 9

e|--------3----------------------------------3-------------------------------|
B|------------5---3---3---3h5---------------------5---3---3---3h5------------|
G|---------------------------------------------------------------------------|
D|---------------------------------------------------------------------------|
A|----3---------------------------------3------------------------------------|
D|---------------------------------------------------------------------------|

e|---------------------------------------------------------------------------|
B|------------1----------------------------------1---------------------------|
G|--------2----------------------------------2-------------------------------|
D|----------------2---2---2--------------------------2---2---2p0-------------|
A|----------------------------------------------------------------3----------|
D|----1---------------------------------1------------------------------------|

x3


e|--------3----------------------------------3---------3h5----3--------------|
B|------------5---3---3---3h5---------------------5---------------5p3--------|
G|---------------------------------------------------------------------------|
D|---------------------------------------------------------------------------|
A|----3---------------------------------3------------------------------------|
D|---------------------------------------------------------------------------|

e|---------------------------------------------------------------------------|
B|------------1----------------------------------1---------------------------|
G|--------2----------------------------------2-------------------------------|
D|----------------2---2---2--------------------------2---2---2p0-------------|
A|----------------------------------------------------------------3----------|
D|----1---------------------------------1------------------------------------|

Then it starts over
 

************************************

| h  Hammer-on
| p  Pull-off

************************************

            
            
Suggest correction
Creating personal tab
Creating personal tab
You can edit any tab online and save it as your Personal.

You can edit, replace or remove any tab part or add personal notes – all changes will be seen only by you.

Personal tabs can be accessed anytime from any device, even offline.
Learn more »
comments
print report bad tab
5 comments total. Showing first comments.
+2 reply
smithjj789 22 Oct 26, 2014 11:01 AM

its 3rd fret on the low E string not 1st

+2 reply
MichaelMcD12 10 Oct 29, 2014 10:58 AM

Lack of accuracy. Ben Howard places his capo so that it is covering 5 strings, low string is open often; this tab is incorrect!

0 reply
deObb 100 Jan 16, 2015 04:41 PM

Lack of accuracy. Clearly wrong. Well sorry but if it's tab it should be correct. I know how Ben plays this song and this isn't particularly close.

guest
Wanna post a correction for this tab? Suggest correction