Oops, an error
Loading. Please wait.

Further Away tab

version 3
version 3

Whole song

Interactive

28,479 views 114 this week
8 commentsread comments
1 2 3 4 5
x 21
add to favorites
×
Save as Personal and add changes to this tab that will be seen only by you. Learn more ›
×
You can save this tab as Personal to edit and correct it or add notes. All changes will be seen only by you. Learn more »
launch autoscroll
font size
0
reset
how to read this tab
guitar tuner
edit
Autoscroll
slow
fast
+/-
esc
set tempo
stop
-------------------------------------------------------------------------------
                             Further Away - Ben Howard
-------------------------------------------------------------------------------
Tabbed by: Dalesta

Tuning: C G C G G C

Capo on 5th on strings 3,4,5,6 - 1st + 2nd strings open

When there are 4 notes at once across E A D G strings this is a slap


e|-0----12+----12+-------------------------7+----7+------------------------------|
B|-0----12+----12+-------------------------7+----7+------------------------------|
G|-0---------------0---------0-------0--------------0---------0-----0------------|
D|-0---------------0---------0---2---0--------------0---------0--2--0------------|
A|-0---------------0---0h2h4-4-----4-2p0------------0---0h2h4-4---4-2p0----------|
E|-0-0-0-----0-----0-0-------0-0-----0---4-----4----4-4-------4-4---4------------|
 

e|-----12+---12+-----------------------------7+---7+-----------------------------|
B|-----12+---12+-----------------------------7+---7+-----------------------------|
G|---------------0---------0-----------0-------------0---------0-----0-----------|
D|---------------0---------0---2h4p2p0-0-------------0---------0--2--0-----------|
A|---------------0---0h2h4-4-----------0-------------0---0h2h4-4---4-2p0---------|
E|--0------0-----0-0-------0-0---------0-0-4----4----4-4-------4-4---4-----------|

e|----0-----0--------0---0-0----------------------------------------------------|
B|----0-----0--------0---0-0----------------------------------------------------|
G|------------0------------0--------------------------------------------------|
D|------------0------------0--------------------------------------------------|
A|------------0------------0--------------------------------------------------|
E|--0-----0---0--0-0---0---0--------------------------------------------------|

e|--------------------------------------------0-----------------0------------|
B|-------0--------------------------------------------------------------------|
G|------0-----0-0-----0-0-----0-0----------0-----0-0---------0-----0-0--------|
D|-----7-----7--7----6--6----4--4/2----2/4-4-------4/2---2/4-4-------4/2------|
A|--------------0-------0-------0----------0-------0---------0-------0--------|
E|-0-7-----6----6--4----4--2----2----00----0-0-----0---00----0-0-----0--------|

e|--------------------------------------------0-----------------0---------------------|
B|-------0-----------------------------------------------------------------------------|
G|------0-----0-0-----0-0-----0-0----------0-----0-0---------0-----0-0-----------0-----|
D|-----7-----7--7----6--6----4--4/2----2/4-4-------4/2---2/4-4-------4/2--4------0-----|
A|--------------0-------0-------0----------0-------0---------0-------0-----------0-----|
E|-0-7-----6----6--4----4--2----2----00----0-0-----0---00----0-0-----0----0------0-0-0-|


[Chorus]

e|---------------------------------------------------------------------------|
B|---------------------------------------------------------------------------|
G|--0---2-2-----4-4-----2-2-----0---2-2-----4-4-----2-2----------------------|
D|--0---0-0-----0-0-----0-0-----0---0-0-----0-0-----0-0----------------------|
A|--0---2-2---4---4---2---2-----0---2-2---4---4---2---2----------------------|
E|----0---0-0-----0-0-----0-0-0---0---0-0-----0-0-----0----------------------|


e|---------------------------------------------------------------------------|
B|---------------------------------------------------------------------------|
G|-------7---7---7-------7---7---7-------------------------------------------|
D|-------0-------0-------0-------0-------------------------------------------|
A|-----7-7-----7-7-----7-7-----7-7-------------------------------------------|
E|-0-7---7-7-----7-7-6---6-6-----6-6-0---------------------------------------|


[Veriations]

VARI #1
e|---12+---12+------------------------7+---7+----------------------------------|
B|---12+---12+------------------------7+---7+----------------------------------|
G|-------------0-----0-0-------0--------------0-----0-0-------0----------------|
D|-------------0---4---4---2---0--------------0---4---4---2---0----------------|
A|-------------0-------0-----4-2p0------------0-------0-----4-2p0--------------|
E|-0-----0-----0-0-----0-0-----0----4----4----4-4-----4-4-----4----------------|

VARI #2
e|---------------------------------------------------------------------------|
B|---------------------------------------------------------------------------|
G|-----0-------0-----------0-------0----------0---------0-------0-------0----|
D|---4-4---2---0--------4--0---2---0----------0-----2---2-------0---2---0----|
A|-----0-----4-2p0---------4-----4-2p0----2h4-2p0-----4-4---2h4-4-----4-4----|
E|-0---0-0-----0------0----0-0-----0----4-----4---4-----4-4-----4-4-----4----|

VARI #3
e|---------------------------------------------------------------------------|
B|---------------------------------------------------------------------------|
G|-----0-----0-0-------0-----------------------------------------------------|
D|---4-4---2---2-----0-0-----------------------------------------------------|
A|-----0-------0---2---2---2-------------------------------------------------|
E|-0---0-0-----0-0-----0-0---------------------------------------------------|

VARI #4
e|--------------------------------------------------------------------------|
B|---4-4---2---------4-4---2------------------------------------------------|
G|---4-4---2-4-2-0---4-4---2-4-2-0-------0---------0---------------0--------|
D|---4-4---2-4-2-0---4-4---2-4-2-0-------0-----2---2-------0-------0--------|
A|-----0-----4-2-0-----0-----4-2-0---2h4-2p0-----4-4---2h4-4---2h4-4--------|
E|-0---0-0---------0---0-0---------4-----4---0-----4-4-----4-4-----4--------|


[Solo]

e|-------------------------------------------------------------------------------------------|
B|-------------------------------------------------------------------------------------------|
G|-------0---------------------------0-------------------------0-----------------0-----------|
D|-------0---------------------------0-----2h4p2p0-------------0-----2---2-------0-------0---|
A|---2h4p2p0---2h4p2p0h2h4p2p0---2h4p2p0----------2h4p2p0--2h4-2p0-----4-4---2h4-4---2h4-4---|
E|-0-----0---0-----------------0-----0---0----------------4----4---4-----4-4-----4-4-----4---|

OUTRO AFTER SOLO
e|-------------------------------------------------------------------------------------------
B|-------------------------------------------------------------------------------------------
G|-----0---------0-------0-------------0---0---0-------0-------------0---0---0-------0-------
D|-----0-----2---2-----0-0-------------0-----0-0-------0-------------0-----0-0-------0-------
A|-2h4-2p0-----4-4---4---4---4-2-0---0-0-------0-----0-0---4-2-0---4-4-------4-----4-4---4-2-0
E|4----4---4-----4-4-----4-4-------0---0-0-----0-0-0---0-0-- ----4---4-4-----4-4-4---4-4-----

e|----------------------------------------|
B|----------------------------------------|
G|-----0---0---0-------0------------------|
D|-----0-----0-0-------0------------------|
A|---0-0-------0-----0-0---4-2-0-4~~~-----|
E|-0---0-0-----0-0-0---0-0-------4~~~-----|





************************************

| /   slide
| h   hammer-on
| p   pull-off
| ~   vibrato
| +   harmonic

************************************

            
            
Suggest correction
Creating personal tab
Creating personal tab
You can edit any tab online and save it as your Personal.

You can edit, replace or remove any tab part or add personal notes – all changes will be seen only by you.

Personal tabs can be accessed anytime from any device, even offline.
Learn more »
comments
print report bad tab
8 comments total. Showing first comments.
0 reply
jonatan.sundkvi 10 Oct 11, 2014 08:51 AM

Yeah.. this is absolutely correct, good job man

0 reply
jonatan.sundkvi 10 Oct 11, 2014 08:52 AM

And you should probably write in where the capo should be placed..

5 fret covering the 4 low strings

0 reply
dalesta 75 Oct 11, 2014 09:22 AM

Thanks, forgot to mention the capo!

guest
You may want to rate the tab now too:
select rating
Wanna post a correction for this tab? Suggest correction