Oops, an error
Loading. Please wait.

Games In The Dark tab

version 1
version 1

Whole song

  • Shows how to play the whole song, including the rhythmic tapping.
82 views 3 this week
no commentswrite comment
1 2 3 4 5
1 last vote to show rating
add to favorites
×
Save as Personal and add changes to this tab that will be seen only by you. Learn more ›
×
You can save this tab as Personal to edit and correct it or add notes. All changes will be seen only by you. Learn more »
launch autoscroll
font size
0
reset
how to read this tab
guitar tuner
edit
Autoscroll
slow
fast
+/-
esc
set tempo
stop
About this tab version
Shows how to play the whole song, including the rhythmic tapping. Was this info helpful? Yes No
Tuning: BF#BF#F#B
This song is played by slapping the strings with your middle finger,
and using your palm and thumb on the body of the guitar to tap out a beat.
The palm slaps with each chord hit, so is implied with each chord and won't be annotated
The thumb taps will be notated as an 'x'. In the chorus slap the lowest string instead of the body, and if
a chord is played simultaneously hit it with your fingers

[Verse]
                        - 3 -
  Q  E Q E E Q Q  E Q E E E E Q  E Q E E Q Q  E Q E E Q Q  E Q E E Q Q  E Q E S S S S
e|0----0-0---0|0----2-2-0-0-0|0----0-0---0|0----0-0---0|0----0-0---0|0----2-2-0-0-0-0|
B|2----2-2---2|2----2-2-5-4-4|5----5-5---5|5----5-5---5|2----2-2---2|2----2-2-5-4-2-0|
G|2----2-2---2|2----2-2-5-4-4|5----5-5---5|5----5-5---5|2----2-2---2|2----2-2-5-4-2-0|
D|0----0-0---0|0----0-0-0-0-0|0----0-0---0|0----0-0---0|0----0-0---0|0----0-0-0-0-0-0|
A|x----x-x---x|x----x-x-x-x-x|x----x-x---x|x----x-x---x|x----x-x---x|x----x-x-x-x-x-0|
E|2--X-2-2-X-2|2--X-2-2-5-4-0|5--X-5-5-X-5|5--X-5-5-X-5|2--X-2-2-X-2|2--X-2-2-5-4-2-0|

  Q  E Q E E Q Q  E Q E E Q
e|0----0-0---0|0----0-0---0|
B|5--X-5-5-X-5|5----5-5---5|
G|5--X-5-5-X-5|5----5-5---5|
D|0----0-0---0|0----0-0---0|
A|x----x-x---x|x----x-x---x|
E|5--X-5-5-X-5|5--X-5-5-X-5|

                        - 3 -
  Q  E Q E E Q Q  E Q E E E E Q  E Q E E Q Q  E Q E E Q Q  E Q E E Q Q  E Q E S S S S H    H
e|0----0-0---0|0----2-2-0-0-0|0----0-0---0|0----0-0---0|0----0-0---0|0----2-2-0-0-0-0|0----0|
B|2----2-2---2|2----2-2-5-4-4|5----5-5---5|5----5-5---5|2----2-2---2|2----2-2-5-4-2-0|5----4|
G|2----2-2---2|2----2-2-5-4-4|5----5-5---5|5----5-5---5|2----2-2---2|2----2-2-5-4-2-0|5----4|
D|0----0-0---0|0----0-0-0-0-0|0----0-0---0|0----0-0---0|0----0-0---0|0----0-0-0-0-0-0|0----0|
A|x----x-x---x|x----x-x-x-x-x|x----x-x---x|x----x-x---x|x----x-x---x|x----x-x-x-x-x-0|x----x|
E|2--X-2-2-X-2|2--X-2-2-5-4-0|5--X-5-5-X-5|5----5-5---5|2--X-2-2-X-2|2--X-2-2-5-4-2-0|5----4|

  Q  E Q E E Q Q  E Q Q.
e|0----0-0---0|0----0-0-|
B|5--X-5-5-X-5|5----5-5-|
G|5--X-5-5-X-5|5----5-5-|
D|0----0-0---0|0----0-0-|
A|x----x-x---x|x----x-x-|
E|5--X-5-5-X-5|5--X-5-5-|

                        - 3 -
  Q  E Q E E Q Q  E Q E E E E Q  E Q E E Q Q  E Q E E Q Q  E Q E E Q Q  E Q E S S S S
e|0----0-0---0|0----2-2-0-0-0|0----0-0---0|0----0-0---0|0----0-0---0|0----2-2-0-0-0-0|
B|2----2-2---2|2----2-2-5-4-4|5----5-5---5|5----5-5---5|2----2-2---2|2----2-2-5-4-2-0|
G|2----2-2---2|2----2-2-5-4-4|5----5-5---5|5----5-5---5|2----2-2---2|2----2-2-5-4-2-0|
D|0----0-0---0|0----0-0-0-0-0|0----0-0---0|0----0-0---0|0----0-0---0|0----0-0-0-0-0-0|
A|x----x-x---x|x----x-x-x-x-x|x----x-x---x|x----x-x---x|x----x-x---x|x----x-x-x-x-x-0|
E|2--X-2-2-X-2|2--X-2-2-5-4-0|5--X-5-5-X-5|5--X-5-5-X-5|2--X-2-2-X-2|2--X-2-2-5-4-2-0|

  Q  E Q E E Q Q  E Q Q.
e|0----0-0---0|0----0-0-|
B|5--X-5-5-X-5|5----5-5-|
G|5--X-5-5-X-5|5----5-5-|
D|0----0-0---0|0----0-0-|
A|x----x-x---x|x----x-x-|
E|5--X-5-5-X-5|5--X-5-5-|

[Chorus]
                       - 3 -
  H Q  Q Q H  Q H  Q Q H H H  Q E E E E E E Q E E E E E E Q
e|------|------|------|7-------|-------------|------------5|
B|--12-9|7-9---|---9-7|--9-7---|5---5-5---5-5|5---5-5---5-5|
G|------|------|------|--------|--5-----5----|--5-----5---5|
D|------|------|------|--------|-------------|------------5|
A|------|------|------|--------|-------------|------------5|
E|0-----|-----X|9-----|-------X|5-----5-----5|5-----5-----X|

  H Q  Q Q H  Q H  Q Q Q Q E E Q E E E E E E Q E E E E E E Q
e|------|------|------|7--------|-------------|------------5|
B|--12-9|7-9---|---9-7|--9-7p0--|5---5-5---5-5|5---5-5---5-5|
G|------|------|------|---------|--5-----5----|--5-----5---5|
D|------|------|------|---------|-------------|------------5|
A|------|------|------|---------|-------------|------------5|
E|0-----|-----X|9-----|--------X|5-----5-----5|5-----5-----X|

  E E E E E E Q E E E E E E Q E E E E E E Q E E E E E E Q E E E E E E Q W
e|-------------|------------5|-------------|------------5|-------------|-------|
B|5---5-5---5-5|5---5-5---5-5|5---5-5---5-5|5---5-5---5-5|5---5-5---5-5|5------|
G|--5-----5----|--5-----5---5|--5-----5----|--5-----5---5|--5-----5----|5------|
D|-------------|------------5|-------------|------------5|-------------|-------|
A|-------------|------------5|-------------|------------5|-------------|-------|
E|5-----5-----5|5-----5-----X|5-----5-----5|5-----5-----X|5-----5-----5|5------|

[Verse]
                        - 3 -
  Q  E Q E E Q Q  E Q E E E E Q  E Q E E Q Q  E Q E E Q Q  E Q E E Q Q  E Q E S S S S
e|0----0-0---0|0----2-2-0-0-0|0----0-0---0|0----0-0---0|0----0-0---0|0----2-2-0-0-0-0|
B|2----2-2---2|2----2-2-5-4-4|5----5-5---5|5----5-5---5|2----2-2---2|2----2-2-5-4-2-0|
G|2----2-2---2|2----2-2-5-4-4|5----5-5---5|5----5-5---5|2----2-2---2|2----2-2-5-4-2-0|
D|0----0-0---0|0----0-0-0-0-0|0----0-0---0|0----0-0---0|0----0-0---0|0----0-0-0-0-0-0|
A|x----x-x---x|x----x-x-x-x-x|x----x-x---x|x----x-x---x|x----x-x---x|x----x-x-x-x-x-0|
E|2--X-2-2-X-2|2--X-2-2-5-4-0|5--X-5-5-X-5|5--X-5-5-X-5|2--X-2-2-X-2|2--X-2-2-5-4-2-0|

  Q  E Q E E Q Q  E Q E E Q
e|0----0-0---0|0----0-0---0|
B|5--X-5-5-X-5|5----5-5---5|
G|5--X-5-5-X-5|5----5-5---5|
D|0----0-0---0|0----0-0---0|
A|x----x-x---x|x----x-x---x|
E|5--X-5-5-X-5|5--X-5-5-X-5|

                        - 3 -
  Q  E Q E E Q Q  E Q E E E E Q  E Q E E Q Q  E Q E E Q Q  E Q E E Q Q  E Q E S S S S H    H
e|0----0-0---0|0----2-2-0-0-0|0----0-0---0|0----0-0---0|0----0-0---0|0----2-2-0-0-0-0|0----0|
B|2----2-2---2|2----2-2-5-4-4|5----5-5---5|5----5-5---5|2----2-2---2|2----2-2-5-4-2-0|5----4|
G|2----2-2---2|2----2-2-5-4-4|5----5-5---5|5----5-5---5|2----2-2---2|2----2-2-5-4-2-0|5----4|
D|0----0-0---0|0----0-0-0-0-0|0----0-0---0|0----0-0---0|0----0-0---0|0----0-0-0-0-0-0|0----0|
A|x----x-x---x|x----x-x-x-x-x|x----x-x---x|x----x-x---x|x----x-x---x|x----x-x-x-x-x-0|x----x|
E|2--X-2-2-X-2|2--X-2-2-5-4-0|5--X-5-5-X-5|5----5-5---5|2--X-2-2-X-2|2--X-2-2-5-4-2-0|5----4|

  Q  E Q E E Q Q  E Q Q.
e|0----0-0---0|0----0-0-|
B|5--X-5-5-X-5|5----5-5-|
G|5--X-5-5-X-5|5----5-5-|
D|0----0-0---0|0----0-0-|
A|x----x-x---x|x----x-x-|
E|5--X-5-5-X-5|5--X-5-5-|

                        - 3 -
  Q  E Q E E Q Q  E Q E E E E Q  E Q E E Q Q  E Q E E Q Q  E Q E E Q Q  E Q E S S S S
e|0----0-0---0|0----2-2-0-0-0|0----0-0---0|0----0-0---0|0----0-0---0|0----2-2-0-0-0-0|
B|2----2-2---2|2----2-2-5-4-4|5----5-5---5|5----5-5---5|2----2-2---2|2----2-2-5-4-2-0|
G|2----2-2---2|2----2-2-5-4-4|5----5-5---5|5----5-5---5|2----2-2---2|2----2-2-5-4-2-0|
D|0----0-0---0|0----0-0-0-0-0|0----0-0---0|0----0-0---0|0----0-0---0|0----0-0-0-0-0-0|
A|x----x-x---x|x----x-x-x-x-x|x----x-x---x|x----x-x---x|x----x-x---x|x----x-x-x-x-x-0|
E|2--X-2-2-X-2|2--X-2-2-5-4-0|5--X-5-5-X-5|5--X-5-5-X-5|2--X-2-2-X-2|2--X-2-2-5-4-2-0|

  Q  E Q E E Q Q  E Q Q.
e|0----0-0---0|0----0-0-|
B|5--X-5-5-X-5|5----5-5-|
G|5--X-5-5-X-5|5----5-5-|
D|0----0-0---0|0----0-0-|
A|x----x-x---x|x----x-x-|
E|5--X-5-5-X-5|5--X-5-5-|

[Chorus]
                       - 3 -
  H Q  Q Q H  Q H  Q Q H H H  Q E E E E E E Q E E E E E E Q
e|------|------|------|7-------|-------------|------------5|
B|--12-9|7-9---|---9-7|--9-7---|5---5-5---5-5|5---5-5---5-5|
G|------|------|------|--------|--5-----5----|--5-----5---5|
D|------|------|------|--------|-------------|------------5|
A|------|------|------|--------|-------------|------------5|
E|0-----|-----X|9-----|-------X|5-----5-----5|5-----5-----X|

  H Q  Q Q H  Q H  Q Q Q Q E E Q E E E E E E Q E E E E E E Q
e|------|------|------|7--------|-------------|------------5|
B|--12-9|7-9---|---9-7|--9-7p0--|5---5-5---5-5|5---5-5---5-5|
G|------|------|------|---------|--5-----5----|--5-----5---5|
D|------|------|------|---------|-------------|------------5|
A|------|------|------|---------|-------------|------------5|
E|0-----|-----X|9-----|--------X|5-----5-----5|5-----5-----X|

  E E E E E E Q E E E E E E Q E E E E E E Q E E E E E E Q E E E E E E Q W
e|-------------|------------5|-------------|------------5|-------------|-------|
B|5---5-5---5-5|5---5-5---5-5|5---5-5---5-5|5---5-5---5-5|5---5-5---5-5|5------|
G|--5-----5----|--5-----5---5|--5-----5----|--5-----5---5|--5-----5----|5------|
D|-------------|------------5|-------------|------------5|-------------|-------|
A|-------------|------------5|-------------|------------5|-------------|-------|
E|5-----5-----5|5-----5-----X|5-----5-----5|5-----5-----X|5-----5-----5|5------|

[Verse]
                        - 3 -
  Q  E Q E E Q Q  E Q E E E E Q  E Q E E Q Q  E Q E E Q Q  E Q E E Q Q  E Q E S S S S
e|0----0-0---0|0----2-2-0-0-0|0----0-0---0|0----0-0---0|0----0-0---0|0----2-2-0-0-0-0|
B|2----2-2---2|2----2-2-5-4-4|5----5-5---5|5----5-5---5|2----2-2---2|2----2-2-5-4-2-0|
G|2----2-2---2|2----2-2-5-4-4|5----5-5---5|5----5-5---5|2----2-2---2|2----2-2-5-4-2-0|
D|0----0-0---0|0----0-0-0-0-0|0----0-0---0|0----0-0---0|0----0-0---0|0----0-0-0-0-0-0|
A|x----x-x---x|x----x-x-x-x-x|x----x-x---x|x----x-x---x|x----x-x---x|x----x-x-x-x-x-0|
E|2--X-2-2-X-2|2--X-2-2-5-4-0|5--X-5-5-X-5|5--X-5-5-X-5|2--X-2-2-X-2|2--X-2-2-5-4-2-0|

  Q  E Q E E Q Q  E Q E E Q
e|0----0-0---0|0----0-0---0|
B|5--X-5-5-X-5|5----5-5---5|
G|5--X-5-5-X-5|5----5-5---5|
D|0----0-0---0|0----0-0---0|
A|x----x-x---x|x----x-x---x|
E|5--X-5-5-X-5|5--X-5-5-X-5|

                        - 3 -
  Q  E Q E E Q Q  E Q E E E E Q  E Q E E Q Q  E Q E E Q Q  E Q E E Q Q  E Q E S S S S H    H
e|0----0-0---0|0----2-2-0-0-0|0----0-0---0|0----0-0---0|0----0-0---0|0----2-2-0-0-0-0|0----0|
B|2----2-2---2|2----2-2-5-4-4|5----5-5---5|5----5-5---5|2----2-2---2|2----2-2-5-4-2-0|5----4|
G|2----2-2---2|2----2-2-5-4-4|5----5-5---5|5----5-5---5|2----2-2---2|2----2-2-5-4-2-0|5----4|
D|0----0-0---0|0----0-0-0-0-0|0----0-0---0|0----0-0---0|0----0-0---0|0----0-0-0-0-0-0|0----0|
A|x----x-x---x|x----x-x-x-x-x|x----x-x---x|x----x-x---x|x----x-x---x|x----x-x-x-x-x-0|x----x|
E|2--X-2-2-X-2|2--X-2-2-5-4-0|5--X-5-5-X-5|5----5-5---5|2--X-2-2-X-2|2--X-2-2-5-4-2-0|5----4|

  Q  E Q E E Q Q  E Q Q.
e|0----0-0---0|0----0-0-|
B|5--X-5-5-X-5|5----5-5-|
G|5--X-5-5-X-5|5----5-5-|
D|0----0-0---0|0----0-0-|
A|x----x-x---x|x----x-x-|
E|5--X-5-5-X-5|5--X-5-5-|

                        - 3 -
  Q  E Q E E Q Q  E Q E E E E Q  E Q E E Q Q  E Q E E Q Q  E Q E E Q Q  E Q E S S S S
e|0----0-0---0|0----2-2-0-0-0|0----0-0---0|0----0-0---0|0----0-0---0|0----2-2-0-0-0-0|
B|2----2-2---2|2----2-2-5-4-4|5----5-5---5|5----5-5---5|2----2-2---2|2----2-2-5-4-2-0|
G|2----2-2---2|2----2-2-5-4-4|5----5-5---5|5----5-5---5|2----2-2---2|2----2-2-5-4-2-0|
D|0----0-0---0|0----0-0-0-0-0|0----0-0---0|0----0-0---0|0----0-0---0|0----0-0-0-0-0-0|
A|x----x-x---x|x----x-x-x-x-x|x----x-x---x|x----x-x---x|x----x-x---x|x----x-x-x-x-x-0|
E|2--X-2-2-X-2|2--X-2-2-5-4-0|5--X-5-5-X-5|5--X-5-5-X-5|2--X-2-2-X-2|2--X-2-2-5-4-2-0|

  Q  E Q E E Q Q  E Q Q.
e|0----0-0---0|0----0-0-|
B|5--X-5-5-X-5|5----5-5-|
G|5--X-5-5-X-5|5----5-5-|
D|0----0-0---0|0----0-0-|
A|x----x-x---x|x----x-x-|
E|5--X-5-5-X-5|5--X-5-5-|

[Outro]
  E E E E E E E E E E E E E E E E E E E E E E E E E E E E E E E E E E E E E E E E E E E E E E E E
e|--------0------|--------0-----0|--------0------|--------0-----0|--------0------|--------0-----0|
B|--0-----------0|--0-----------0|--0-----------0|--0-----------0|--0-----------0|--0-----------0|
G|----0-----0----|----0-----0---0|----0-----0----|----0-----0---0|----0-----0----|----0-----0---0|
D|------4-----4--|------4-----4-4|------2-----2--|------2-----2-2|------4-----4--|------4-----4-4|
A|5--------------|5-------------5|4--------------|4-------------4|2--------------|2-------------2|
E|---------------|--------------X|---------------|--------------X|---------------|--------------X|

  E E E E E E E E E E E E E Q E
e|--------7------|------------7|
B|----------7---7|----9-----7-7|
G|----7-------7--|--7-----7---7|
D|--7------------|------7-----7|
A|0-----0--------|0-----------0|
E|---------------|------------X|

  E E E E E E E E E E E E E E E E E E E E E E E E E E E E E E E E E E E E E E E E E E E E E E E E
e|--------0------|--------0-----0|--------0------|--------0-----0|--------0------|--------0-----0|
B|--0-----------0|--0-----------0|--0-----------0|--0-----------0|--0-----------0|--0-----------0|
G|----0-----0----|----0-----0---0|----0-----0----|----0-----0---0|----0-----0----|----0-----0---0|
D|------4-----4--|------4-----4-4|------2-----2--|------2-----2-2|------4-----4--|------4-----4-4|
A|5--------------|5-------------5|4--------------|4-------------4|2--------------|2-------------2|
E|---------------|--------------X|---------------|--------------X|---------------|--------------X|

  E E E E E E E E E E E E E Q E
e|--------7------|------------7|
B|----------7---7|----9-----7-7|
G|----7-------7--|--7-----7---7|
D|--7------------|------7-----7|
A|0-----0--------|0-----------0|
E|---------------|------------X|

  E E E E E E E E E E E E E E E E E E E E E E E E E E E E E E E E E E E E E E E E E E E E E E E E
e|--------0------|--------0-----0|--------0------|--------0-----0|--------0------|--------0-----0|
B|--0-----------0|--0-----------0|--0-----------0|--0-----------0|--0-----------0|--0-----------0|
G|----0-----0----|----0-----0---0|----0-----0----|----0-----0---0|----0-----0----|----0-----0---0|
D|------4-----4--|------4-----4-4|------2-----2--|------2-----2-2|------4-----4--|------4-----4-4|
A|5--------------|5-------------5|4--------------|4-------------4|2--------------|2-------------2|
E|---------------|--------------X|---------------|--------------X|---------------|--------------X|

  E E E E E E E E E E E E E E E E E E E E E E E E E E E E E E E E E E E E E E E E E E E E E E E E
e|--------7------|--------7------|--------7------|--------7------|--------7------|--------7------|
B|------7---7----|------7---7----|------7---7----|------7---7----|------7---7----|------7---7----|
G|----7-------7--|----7-------7--|----7-------7--|----7-------7--|----7-------7--|----7-------7--|
D|--7-----------7|--7-----------7|--7-----------7|--7-----------7|--7-----------7|--7-----------7|
A|0--------------|0--------------|0--------------|0--------------|0--------------|0--------------|
E|---------------|---------------|---------------|---------------|---------------|---------------|

  E E E E E E E E E E E W
e|0-----0-----0--|0-----0|
B|--5-----5-----5|--5---5|
G|----0-----0----|----0--|
D|---------------|-------|
A|---------------|-------|
E|0-----0-----0--|0-----0|


************************************

| x   Dead note
| p   Pull-off

************************************

            
            
Suggest correction
Creating personal tab
Creating personal tab
You can edit any tab online and save it as your Personal.

You can edit, replace or remove any tab part or add personal notes – all changes will be seen only by you.

Personal tabs can be accessed anytime from any device, even offline.
Learn more »
Give kudos to tab author, rate the tab!
1 2 3 4 5
comments
print report bad tab
guest
You may want to rate the tab now too:
select rating
Wanna post a correction for this tab? Suggest correction