Oops, an error
Loading. Please wait.

Keep Your Head Up bass

version 1
version 1

Whole song

Interactive

4,337 views 9 this week
no commentswrite comment
1 2 3 4 5
x 3
add to favorites
×
Save as Personal and add changes to this tab that will be seen only by you. Learn more ›
×
You can save this tab as Personal to edit and correct it or add notes. All changes will be seen only by you. Learn more »
launch autoscroll
font size
0
reset
guitar tuner
edit
Autoscroll
slow
fast
+/-
esc
set tempo
stop
Author
Difficulty
-------------------------------------------------------------------------------
                        Keep Your Head Up - Ben Howard
-------------------------------------------------------------------------------

Tabbed by: Callum Urquhart

Tuning: Standard

Not 100% sure on this, the timing isnt well shown,
and its hard to tell where there is bass, but its sounds fine
when played properly.
Any corrections please tell me!

Awesome song. This tab is for
the album version.


Verse 1

No bass till 0:45:

I'm walkin' back down this mountain...

G|------------------------------------------|
D|------------------------------------------|  X5
A|-3>-------------7>-------9-10-------------|
E|------------------------------------------|

G|------------------------------------------|
D|------------------------------------------|
A|-3>-------------5-5>-----5>---------------|
E|----------------------------------5\------|


Chorus

Keep your head up, keep your heart strong. No, no, no, no.

G|------------------------------------------|
D|------------------------------------------|
A|---------5>-------3>-------3---2----------|
E|-0>--------------------------------3------|

Keep your mind set, keep your hair long. Oh my my darlin',

G|------------------------------------------|
D|------------------------------------------|
A|---------5>-------3>-------3---2-2--------|
E|-0>--------------------------------3------|

Keep your head up, keep your heart strong. No no no no.

G|------------------------------------------|
D|------------------------------------------|
A|---------5>-------3>-------3---2-2--------|
E|-0>----3---------------------------3------|

Keep your mind set in your ways, keep your heart

G|------------------------------------------|
D|------------------------------------------|
A|---------5>-------5-5>-----5-5>-----------|
E|-0>----3----------------------------------|

strong.

G|------------5-----------------------------|
D|---------5--------------------------------|
A|-3----------------------------------------|
E|------------------------------------------|


Verse 2

I saw a friend of mine the other day...

G|------------------------------------------|
D|------------------------------------------|
A|-\3>-----3--3---7>-------9--10-10-5-------|
E|------------------------------------------|

G|---------5--5-----------------------------|
D|-----5------------------------------------| X4
A|-3--------------7>-------9--10-10-5-------|
E|------------------------------------------|

G|------------------------------------------|
D|------------------------------------------|
A|-3>-----3-3>------5-5>-----5>-------------|
E|----------------------------------5\------|


Chorus


Break

Cause I'll always remember you the same...

G|-4----------------------------------------|
D|---5>-------4>----------------------------|
A|----------------------3>------------------|
E|------------------------------------------|

Oh eyes like wild flowers within demons of change.

G|------------------------------------------|
D|------------------------------------------|
A|----------------------3>------------------|
E|-\3>--------2>----------------------------|

Keep your head up, keep your heart strong...

G|-----------7---------------7--------------|
D|--------7-------7-------7-------7---------|
A|-3h5---------------5----------------------|
E|------------------------------------------|

G|---------7---------------7----------------|
D|------7-------7-------7-------------------|
A|-5---------------5------------------------|
E|------------------------------------------|


Chorus


Ending

Cause I'll always remember you the same...

G|------------------------------------------|
D|------------------------------------------|
A|--------------------------------3---------|
E|-3-------------2--------------------------|

Oh eyes like wild flowers within demons of change.

G|------------------------------------------|
D|------------------------------------------|
A|--------------------------------3---------|
E|-3-------------2--------------------------|

G|-----------7---------------7--------------|
D|--------7-------7-------7-------7---------|
A|-3h5---------------5----------------------|
E|------------------------------------------|

G|---------7---------------7----------------|
D|------7-------7-------7-------7-----------|
A|-5---------------5---------------5--------|
E|------------------------------------------|

| \  slide down
| h  hammer-on
| >  hold note
===============================================================================

            
            
Suggest correction
Creating personal tab
Creating personal tab
You can edit any tab online and save it as your Personal.

You can edit, replace or remove any tab part or add personal notes – all changes will be seen only by you.

Personal tabs can be accessed anytime from any device, even offline.
Learn more »
Give kudos to tab author, rate the tab!
1 2 3 4 5
comments
print report bad tab
guest
You may want to rate the tab now too:
select rating
Wanna post a correction for this tab? Suggest correction