Oops, an error
Loading. Please wait.

She Treats Me Well intro tab

version 1
version 1

Intro

Whole song

Interactive

1,210 views 3 this week
no commentswrite comment
1 2 3 4 5
1 last vote to show rating
add to favorites
×
Save as Personal and add changes to this tab that will be seen only by you. Learn more ›
×
You can save this tab as Personal to edit and correct it or add notes. All changes will be seen only by you. Learn more »
launch autoscroll
font size
0
reset
how to read this tab
guitar tuner
edit
Autoscroll
slow
fast
+/-
esc
set tempo
stop
***************************************************************************************

TUNING

Without the Capo, tune it to:
C G Bb G F Bb

Then put the capo on 5th fret but not on the 6th string giving:
C C Eb C Bb Eb

Tab is relative to the capo except for the 6th string.

(Again, really pay attention to the beats that are above each tab if you are 
struggling.)

*****************************************************************************


Seen for-          -tune                            in      my
Bb|------------------0----------------------------------------------|
F |----------------------------------0------------------------------|
G |----------------------2---------------2-----------------------0--|
Bb|----------------------------------------------------------0------|
G |-----------------------------------------------------------------|
C |--10------X---10----------X---10----------X---10--7 h 8----------|


     life-          -time
Bb|----------0-------0-------0---------------0-------0-------0------|
F |----------0---------------0---------------0---------------0------|
G |----------0-----------0---0---------------0-----------0---0------|
Bb|----------0---------------0---------------0---------------0------|
G |----------3---------------3---------0h3---3---------------3------|
C |--0-----------0---------------0---------------0---------------10-|


    gave             it              all     to the man  ins-
Bb|----------0-------0-------X---------------X----------------------|
F |----------0---------------X-------0-------X----------------------|
G |------2---2-----------2---X-----------2---X-------------------0--|
Bb|----------0---------------X---------------X---------------0------|
G |----------0---------------X---------------X----------------------|
C |--------------10----------X---10----------X---10--7 h 8----------|


   -stead
Bb|----------0-------0-------X--------------------------------------|
F |----------0---------------X--------------------------------------|
G |----------0-----------0---X--------------------------------------|
Bb|----------0---------------X-------3 p 2 p 0-------2 p 0----------|
G |----------3---------------X-------------------0------------------|
C |--0-----------0-----------X---0----------------------------------|

Alternative 2nd bar:

Bb|----------0-------0-------0-------------------------------------|
F |----------0---------------0-------4 h 6-----------6 p 4---------|
G |----------0-----------0---0-----------------------------------0-|
Bb|----------0---------------0-------------------------------------|
G |----------3---------------3-------------------------------------|
C |--0-----------0---------------0-----------X---0-----------0-----|

*************************************************************************************

| h Hammer on
| p Pull off
| x dead note

**************************************************************************************

            
            
Suggest correction
Creating personal tab
Creating personal tab
You can edit any tab online and save it as your Personal.

You can edit, replace or remove any tab part or add personal notes – all changes will be seen only by you.

Personal tabs can be accessed anytime from any device, even offline.
Learn more »
Give kudos to tab author, rate the tab!
1 2 3 4 5
comments
print report bad tab
guest
You may want to rate the tab now too:
select rating
Wanna post a correction for this tab? Suggest correction