Oops, an error
Loading. Please wait.

7861 bass

version 1
version 1

Whole song

Interactive

3,952 views 1 this week
3 commentsread comments
1 2 3 4 5
2 more votes to show rating
add to favorites
×
Save as Personal and add changes to this tab that will be seen only by you. Learn more ›
×
You can save this tab as Personal to edit and correct it or add notes. All changes will be seen only by you. Learn more »
launch autoscroll
font size
0
reset
guitar tuner
edit
Autoscroll
slow
fast
+/-
esc
set tempo
stop
-------------------------------------------------------------------------------
			     7861 - Beneath the Sky
-------------------------------------------------------------------------------

Tabbed By : execution_666

Tuning: CGCF

This song had no bass tab. So I tried it. 

Intro:
F|---------|
C|---------|
G|---------|
C|---5\\\--|


F|---------------------------------------------------------------------------|
C|---------------------------------------------------------------------------|
G|---------------------------------------------------------------------------|
C|-00000000000----000000000----1--1---0--00--0000---00000000---0---3---1-----|


F|---------------------------------------------------------------------------|
C|---------------------------------------------------------------------------|
G|---------------------------------------------------------------------------|
C|-00000000-----0-00-0000----000000000-----000000000----0----1---3-----------|

Verse:
F|--------------------------------------------|
C|--------------------------------------------|
G|--------------------------------------------|
C|-1000000--1000000--1000000--1030403---------|

F|-----------------------------------------|--------------|
C|-----------------------------------------|--------------|
G|-----------------------------------------|----REST------|
C|-1--0----1--0----1--0----1030403---------|--------------|

F|------------------------------------------------------|
C|------------------------------------------------------|
G|------------------------------------------------------|
C|-0-0------------00-0------------8-8------------8-8----|

F|---------------------------------------------------------|
C|---------------------------------------------------------|x2
G|---------------------------------------------------------|
C|-5--555-555-555-555---8--8-8-8-8-8-8---7--7-7-7-7-7-7----|


Pre-Chorus 
F|-----------------------------------------------------------|
C|-----------------------------------------------------------|
G|-----------------------------------------------------------|
C|-0--0-0-0-0-0-0--000-0--0-0-0-0-0-0--000-8--8-8-8-8-8-8----|

F|-----------------------------------------------------------|
C|-----------------------------------------------------------|
G|-----------------------------------------------------------|
C|-888-10--10-10-10-10-10-10-10-10--7--77777777--------------|

Chorus:
F|-----------------------------------------------------------|
C|-----------------------------------------------------------|
G|-8--7-3--5555-5-5-5-5-55-----8--7-3--5555-5-5-5-5-55-------|
C|-----------------------------------------------------------|

F|--------------------------------------|
C|--------------------------------------|
G|--8--7---8--7---8--3--5---10-10-------|
C|--------------------------------------|

Fill (optional)
F|------------------------------------------|
C|------------------------------------------|x2
G|------------------7h8p7-5-7-7-5-3-5-------|
C|-0-0----0---0---0-------------------------|

Verse 2:
F|------------------------------------------------|
C|------------------------------------------------|
G|--------------8---7h8---7h8---7h8p7---5h7-------|
C|-0-0----0---0---0-----0-----0-------0-----------|


F|------------------------------------------------|
C|------------------------------------------------|
G|-----7h8---7h8---7h8---7h8---7h8---7h8p7---5h7--|
C|-8-8------0-----0-----0-----0-----0-------0-----|

F|----------------------------------------|
C|----------------------------------------|
G|-------10---10-8-7---7----8---8-7-5-----|
C|-10--0----0----------7--0---0-----------|


Breakdown:
F|----------------------------------------------------------|
C|----------------------------------------------------------|
G|----------------------------------------------------------|
C|-0--0-0-0-0-0-0--000-0--0-0-0-0-0-0--000-8--8-8-8-8-8-8---|

F|----------------------------------------------------------|
C|----------------------------------------------------------|
G|----------------------------------------------------------|
C|-888-10--10-10-10-10-10-10-10-10--7--77777777-------------|


Chorus:
F|-------------------------------------------------------|
C|-------------------------------------------------------|x3
G|-8--7-3--5555-5-5-5-5-55-----8--7-3--5555-5-5-5-5-55---|
C|-------------------------------------------------------|

F|------------------------------------|
C|------------------------------------|
G|--8--7---8--7---8--3--5---10-10-----|
C|------------------------------------|


Break:
F|------------------|------------------|------------------|-----------|
C|----------REST----|----------REST----|----------REST----|-----------|x3
G|------------------|------------------|------------------|-----------|
C|-0-0-0-0----------|-0-0-0-0----------|-0-0-0-0----------|-0-0-0-0---|

Outro:
F|------------------------------------|------------------------------------|
C|------------------------------------|------------------------------------|
G|--------------8---7h8p7-5-7-7-5-3-5-|--------------8---7h8p7-5-7-7-5-7-8-|
C|-0-0----0---0---0-------------------|-0-0----0---0---0-------------------|

Beneath the Sky broke up on 8-15-08. This is one of their awesome songs. 

| /  slide up
| \  slide down
| h  hammer-on
| p  pull-off
| ~  vibrato
| +  harmonic
| x  Mute note
===============================================================================

            
            
Suggest correction
Creating personal tab
Creating personal tab
You can edit any tab online and save it as your Personal.

You can edit, replace or remove any tab part or add personal notes – all changes will be seen only by you.

Personal tabs can be accessed anytime from any device, even offline.
Learn more »
Give kudos to tab author, rate the tab!
1 2 3 4 5
comments
print report bad tab
3 comments total.
0 reply
xdickcorexNFG 10 Mar 04, 2009 08:18 PM

yo make more BTS tabs

0 reply
tjteagle 10 Jul 28, 2009 09:37 PM

btw, beneath the sky supposively got back together March 13 2009

0 reply
ClaytonHarder 10 Oct 03, 2010 02:14 PM

some of it's wrong, but it's pretty good it helped me get the gist of it. but the intro is wrong, the bass continues. with bts, it's really hard to hear the bass, the only reason i can tell is because i listened to this with a sub cranked to the max and it blasted. but it is pretty damn accurate.

guest
You may want to rate the tab now too:
select rating
Wanna post a correction for this tab? Suggest correction