Oops, an error
Loading. Please wait.

Miente bass

version 1
version 1

Whole song

Interactive

by Bengala
1,868 views 1 this week
no commentswrite comment
1 2 3 4 5
3 more votes to show rating
add to favorites
×
Save as Personal and add changes to this tab that will be seen only by you. Learn more ›
×
You can save this tab as Personal to edit and correct it or add notes. All changes will be seen only by you. Learn more »
launch autoscroll
font size
0
reset
guitar tuner
edit
Autoscroll
slow
fast
+/-
esc
set tempo
stop
Author
Que Hay!!! Aqui les dejo una de las grandes de Bengala y preparense para su nuevo 
disco "Oro" asi que aquí les va

¡¡¡Prendan la Distoroción!!!

Intro 
G[-----------------------------]
D[-----------------------------]
A[----7-5-----5-7-4------7-5---]
E[-7------7-----------7--------]x4

Verso 1 (Ella me miro...)
G[------------------------------------]
D[------------------------------------]
A[----7*-5*-----5*-7*-4*------7*-5*---]
E[-7*--------7*------------7*---------]

Coro x2
G[-----------------------------------------]
D[-----------------------------------------]
A[----------5555/7777--44444444-5555/77777-]
E[-77777777--------------------------------]

G[--------------------------------]
D[--------------------------------]
A[-5555555/77777777-4444444h55555-]
E[--------------------------------]

Solo de Guitarra igual que el Intro

Verso 2 (Ella me miro...)
G[-------------------]                             
D[-------------------]                             
A[-22222222/55555555-] (y me quede sin habalaaar!) 
E[-------------------]                             

Silencio y otra vez el coro

Coro (Miente aunque sea un momento...) x2
G[-----------------------------------------]
D[-----------------------------------------]
A[----------5555/7777--44444444-5555/77777-]
E[-77777777--------------------------------]

G[--------------------------------]
D[--------------------------------]
A[-5555555/77777777-4444444h55555-]
E[--------------------------------]

Outro (haz las notas un pooquito 
rapido para obtener un sonido similar)
G[--------------------------]
D[--------------------------]
A[---7-5----5-7-4-----7-5---]
E[-7------7---------7-------]

            
            
Suggest correction
Creating personal tab
Creating personal tab
You can edit any tab online and save it as your Personal.

You can edit, replace or remove any tab part or add personal notes – all changes will be seen only by you.

Personal tabs can be accessed anytime from any device, even offline.
Learn more »
Give kudos to tab author, rate the tab!
1 2 3 4 5
comments
print report bad tab
guest
You may want to rate the tab now too:
select rating
Wanna post a correction for this tab? Suggest correction