Oops, an error
Loading. Please wait.

Unpicking A Puzzle tab

133 views 1 this week
no commentswrite comment
1 2 3 4 5
3 more votes to show rating
add to favorites
×
Save as Personal and add changes to this tab that will be seen only by you. Learn more ›
×
You can save this tab as Personal to edit and correct it or add notes. All changes will be seen only by you. Learn more »
launch autoscroll
font size
0
reset
how to read this tab
guitar tuner
edit
Autoscroll
slow
fast
+/-
esc
set tempo
stop
Author
Difficulty
About this tab version
Note: The studio version is tuned a half step down, this is how he plays it live. This may not be perfect, with all the variations etc. Hopefully its a good start for people to work on. Was this info helpful? Yes No
[Intro]
e|---------------------------------|---------------------------------------|
B|-----2-------------3---3---3---3-|-----2-------------3---3---3---3-------|
G|-2h4---4-2---2-------2-------2---|-2h4---4-2---2-------2-------2---------|
D|-----------2---2-4-------4-------|-----------2---2-4-------4-------------|
A|-0-------------------------------|-0-------------------------------------|
E|---------------------------------|---------------------------------------|

e|---4---4---5---------5-----------|---4---4---5-----------2-------2-------|
B|-----------------5h7---7-5-------|---------------------2-----2-------2---|
G|---4---4-------------------7-----|---4---4-----------2---------2---------|
D|---------------0---------------0-|----------------0----------------------|
A|-4---4---------------------------|-4---4---4-------4---------------------|
E|---------------------------------|---------------------------------------|

[Verse]
e|---------------------------------|---------------------------------------|
B|-----2-------------3---3---3---3-|-----2-------------3---3---3---3-------|
G|-2h4---4-2---2-------2-------2---|-2h4---4-2---2-------2-------2---------|
D|-----------2---2-4-------4-------|-----------2---2-4-------4-------------|
A|-0-------------------------------|-0-------------------------------------|
E|---------------------------------|---------------------------------------|

e|---4---4---5---------5-----------|---4---4---5-----------2-------2-------|
B|-----------------5h7---7-5-------|---------------------2-----2-------2---|
G|---4---4-------------------7-----|---4---4-----------2---------2---------|
D|---------------0---------------0-|----------------0----------------------|
A|-4---4---------------------------|-4---4---4-------4---------------------|
E|---------------------------------|---------------------------------------|

e|---------------------------------|---------------------------------------|
B|-----2-------------3---3---3---3-|-----2-------------3---3---3---3-------|
G|-2h4---4-2---2-------2-------2---|-2h4---4-2---2-------2-------2---------|
D|-----------2---2-4-------4-------|-----------2---2-4-------4-------------|
A|-0-------------------------------|-0-------------------------------------|
E|---------------------------------|---------------------------------------|

e|---4---4---5---------5-----------|---4---4---5-----------2-------2-------|
B|-----------------5h7---7-5-------|---------------------2-----2-------2---|
G|---4---4-------------------7-----|---4---4-----------2---------2---------|
D|---------------0---------------0-|----------------0----------------------|
A|-4---4---------------------------|-4---4---4-------4---------------------|
E|---------------------------------|---------------------------------------|

[Chorus]
e|----2---0---0---2-------|--------2---0---2---2-----|
B|---3---2---0---3--------|-------3---2---0---2------|
G|--2---2---0---2---------|------2---2---0---2-------|
D|-0-----------0----------|-----0--------------------|
A|-----0---2--------------|---------0----------------|
E|------------------------|-------------3---2--------|

e|----0---0---0---0---2---|------------0---0---0---0-|
B|---2---0---0---0---3----|-----------2---0---0---0--|
G|--2---0---0---0---2-----|----------2---0---0---0---|
D|-----------------0------|--------------------------|
A|-0----------------------|---------0----------------|
E|-----0------------------|-------------0------------|

[Instrumental]
e|---------------------------------|---------------------------------------|
B|-----2-------------3---3---3---3-|-----2-------------3---3---3---3-------|
G|-2h4---4-2---2-------2-------2---|-2h4---4-2---2-------2-------2---------|
D|-----------2---2-4-------4-------|-----------2---2-4-------4-------------|
A|-0-------------------------------|-0-------------------------------------|
E|---------------------------------|---------------------------------------|

e|---4---4---5---------5-----------|---4---4---5-----------2-------2-------|
B|-----------------5h7---7-5-------|---------------------2-----2-------2---|
G|---4---4-------------------7-----|---4---4-----------2---------2---------|
D|---------------0---------------0-|----------------0----------------------|
A|-4---4---------------------------|-4---4---4-------4---------------------|
E|---------------------------------|---------------------------------------|

[Verse]
e|---------------------------------|---------------------------------------|
B|-----2-------------3---3---3---3-|-----2-------------3---3---3---3-------|
G|-2h4---4-2---2-------2-------2---|-2h4---4-2---2-------2-------2---------|
D|-----------2---2-4-------4-------|-----------2---2-4-------4-------------|
A|-0-------------------------------|-0-------------------------------------|
E|---------------------------------|---------------------------------------|

e|---4---4---5---------5-----------|---4---4---5-----------2-------2-------|
B|-----------------5h7---7-5-------|---------------------2-----2-------2---|
G|---4---4-------------------7-----|---4---4-----------2---------2---------|
D|---------------0---------------0-|----------------0----------------------|
A|-4---4---------------------------|-4---4---4-------4---------------------|
E|---------------------------------|---------------------------------------|

e|---------------------------------|---------------------------------------|
B|-----2-------------3---3---3---3-|-----2-------------3---3---3---3-------|
G|-2h4---4-2---2-------2-------2---|-2h4---4-2---2-------2-------2---------|
D|-----------2---2-4-------4-------|-----------2---2-4-------4-------------|
A|-0-------------------------------|-0-------------------------------------|
E|---------------------------------|---------------------------------------|

e|---4---4---5---------5-----------|---4---4---5-----------2-------2-------|
B|-----------------5h7---7-5-------|---------------------2-----2-------2---|
G|---4---4-------------------7-----|---4---4-----------2---------2---------|
D|---------------0---------------0-|----------------0----------------------|
A|-4---4---------------------------|-4---4---4-------4---------------------|
E|---------------------------------|---------------------------------------|

[Chorus]
e|----2---0---0---2-------|--------2---0---2---2-----|
B|---3---2---0---3--------|-------3---2---0---2------|
G|--2---2---0---2---------|------2---2---0---2-------|
D|-0-----------0----------|-----0--------------------|
A|-----0---2--------------|---------0----------------|
E|------------------------|-------------3---2--------|

e|----0---0---0---0---2---|------------0---0---0---0-|
B|---2---0---0---0---3----|-----------2---0---0---0--|
G|--2---0---0---0---2-----|----------2---0---0---0---|
D|-----------------0------|--------------------------|
A|-0----------------------|---------0----------------|
E|-----0------------------|-------------0------------|

[Bridge]
e|--------------2-------0------|-----------------2-------0-----|
B|------2-----3--3----0--0-----|---------2-----3--3----0--0----|
G|----2--2---2-------1---------|-------2--2---2-----0h1--------|
D|---4-----0-------------------|------4-----0------------------|
A|-----------------------------|-------------------------------|
E|-2---------------0-----------|----2---------------0----------|

e|--------------0-------2------|-----------------0-------2-----|
B|------2-----0--0----3--3-----|---------2-----0--0----3--3----|
G|----2--2---1-------2---------|-------2--2---1-------2--------|
D|---4-------------0-----------|------4-------------0----------|
A|-----------------------------|-------------------------------|
E|-2-------0-------------------|----2-------0------------------|

e|--------------0-------2------|-----------------2-------0-----|
B|------2-----0--0----3--3-----|---------2-----3--3----0--0----|
G|----2--2---1-------2---------|-------2--2---2-------1--------|
D|---4-------------0-----------|------2-----0------------------|
A|-----------------------------|----0--------------------------|
E|-2-------0-------------------|--------------------0----------|

[Instrumental]
e|---------------------------------|---------------------------------------|
B|-----2-------------3---3---3---3-|-----2-------------3---3---3---3-------|
G|-2h4---4-2---2-------2-------2---|-2h4---4-2---2-------2-------2---------|
D|-----------2---2-4-------4-------|-----------2---2-4-------4-------------|
A|-0-------------------------------|-0-------------------------------------|
E|---------------------------------|---------------------------------------|

e|---4---4---5---------5-----------|---4---4---5-----------2-------2-------|
B|-----------------5h7---7-5-------|---------------------2-----2-------2---|
G|---4---4-------------------7-----|---4---4-----------2---------2---------|
D|---------------0---------------0-|----------------0----------------------|
A|-4---4---------------------------|-4---4---4-------4---------------------|
E|---------------------------------|---------------------------------------|

[Verse]
e|---------------------------------|---------------------------------------|
B|-----2-------------3---3---3---3-|-----2-------------3---3---3---3-------|
G|-2h4---4-2---2-------2-------2---|-2h4---4-2---2-------2-------2---------|
D|-----------2---2-4-------4-------|-----------2---2-4-------4-------------|
A|-0-------------------------------|-0-------------------------------------|
E|---------------------------------|---------------------------------------|

e|---4---4---5---------5-----------|---4---4---5-----------2-------2-------|
B|-----------------5h7---7-5-------|---------------------2-----2-------2---|
G|---4---4-------------------7-----|---4---4-----------2---------2---------|
D|---------------0---------------0-|----------------0----------------------|
A|-4---4---------------------------|-4---4---4-------4---------------------|
E|---------------------------------|---------------------------------------|

e|---------------------------------|---------------------------------------|
B|-----2-------------3---3---3---3-|-----2-------------3---3---3---3-------|
G|-2h4---4-2---2-------2-------2---|-2h4---4-2---2-------2-------2---------|
D|-----------2---2-4-------4-------|-----------2---2-4-------4-------------|
A|-0-------------------------------|-0-------------------------------------|
E|---------------------------------|---------------------------------------|

e|---4---4---5---------5-----------|---4---4---5-----2---------------------|
B|-----------------5h7---7-5-------|-----------------2---------------------|
G|---4---4-------------------7-----|---4---4---------2---------------------|
D|---------------0---------------0-|-----------------4---------------------|
A|-4---4---------------------------|-4---4---4-------4---------------------|
E|---------------------------------|---------------------------------------|

************************************

| h   Hammer-on

************************************

            
            
Suggest correction
Creating personal tab
Creating personal tab
You can edit any tab online and save it as your Personal.

You can edit, replace or remove any tab part or add personal notes – all changes will be seen only by you.

Personal tabs can be accessed anytime from any device, even offline.
Learn more »
Give kudos to tab author, rate the tab!
1 2 3 4 5
comments
print report bad tab
guest
You may want to rate the tab now too:
select rating
Wanna post a correction for this tab? Suggest correction