Oops, an error
Loading. Please wait.

Take Me Out To The Ballgame tab

version 1
version 1

Whole song

Interactive

1,512 views 3 this week
no commentswrite comment
1 2 3 4 5
1 last vote to show rating
add to favorites
×
Save as Personal and add changes to this tab that will be seen only by you. Learn more ›
×
You can save this tab as Personal to edit and correct it or add notes. All changes will be seen only by you. Learn more »
launch autoscroll
font size
0
reset
how to read this tab
guitar tuner
edit
Autoscroll
slow
fast
+/-
esc
set tempo
stop
Author
Difficulty
Title: Take Me Out to the Ball Game
Artist: Bernie Williams
Tuning: Standard
Time Signature: 6/4

 x - mute
 h - hammer on
 p - pull off


|-----------------3----------------------|-----------------0----------------------|
|-----------0-----------0----------------|-----------3-----------3----------------|
|--------5-----------------5-------------|--------5-----------------5-------------|
|-----0----------------------------------|-----0----------------------------------|
|--5-----------5-----5-----------5-------|--5-----------5-----5-----------5-------|
|----------------------------------------|----------------------------------------|


|-----------------3----------------------|-----------------0----------------------|
|-----------0-----------0----------------|-----------3----------------------------|
|--------5-----------------5-------------|--------5-------------------------------|
|-----0----------------------------------|-----0----------------------------------|
|--5-----------5-----5-----------5-------|--5-----------5-----5-------------------|
|----------------------------------------|----------------------------------------|


|--------------3-----0-------------------|----------------------------------------|
|--0--------------------------3--0-------|--3-----------3-------------------------|
|--0-----------------------0-------------|--------0-----------2-------------------|
|--5-------------------------------------|--5--------5----------------------------|
|--5-------------------------------------|--3-----------------3-------------------|
|--3-----------------0-------------------|----------------------------------------|


|--------------3-----0-------------------|----------------------------------------|
|-----------------------------3--0-------|--3-----------3-----------3-------------|
|--------0-------------------------------|--5-----0--5--------------5-----4-------|
|--------2-----2-----------0-------------|--3-------------------------------------|
|-----2----------------------------------|--0--------------------5----------------|
|--0-------------------------------------|--------------------3-------------------|


|----------------------------------------|--0-------------------------------------|
|--5-----3-----5-----------------3-------|--------------1-------------------------|
|--------------------4-----5-------------|-----------0--------2-----0-----2-------|
|--6--------6--------3-------------------|----------------------------------------|
|----------------------------------------|--------3-----------3-------------------|
|--4-----------------4-------------------|----------------------------------------|


|--0-----------------0-----2-----3-------|--5-----2-----0-------------------------|
|--0-----------5-----2-----3-----5-------|--6-----3-----1-----3-------------------|
|--4-----2-----4-------------------------|--------------------3-----4-----2-------|
|--5-------------------------------------|--------------------------5-----0-------|
|--4-------------------------------------|--------------------1-----3-------------|
|--------------------2-----3-----5-------|--6-----3-----1-------------------------|


|--------------3-----0-------------------|
|-----------------------------3--0-------|
|--0--------0--------------0-------------|
|--5-------------------------------------|
|--5-------------------------------------|
|--------------------0-------------------|


|----------------------------------------------------------------------------|
|--3-----------------------3-------------------------------------------------|
|--------------0-----------------------2--------------------3p-2-----0-------|
|--5-----------------5-------------------------------------------------------|
|--3-----------------------------------3-------------------------------------|
|----------------------------------------------------------------------------|


|----------------------------------------|----------------------------------------|
|--------------------0-----1-----3-------|--------5-----------------5-----7-------|
|--------0-----2--x--4-----2-----4-------|--------------4-----------4-------------|
|--------2-----------5-------------------|-----7-----------7-----7----------------|
|-----2--------------------0-----2-------|--4-----------------4-------------------|
|--0-------------------------------------|----------------------------------------|


|----------------------------------------|--3-------------------------------------|
|--8-----------------8-------------------|--6-----6-----5-----3-----------3-------|
|--7-----------------7-------------------|--5-----------------------5-------------|
|--5-----------------5-------------------|--------------------3-------------------|
|----------------------------------------|----------------------------------------|
|--8-----------------6-------------------|--5-----------------6-------------------|


|--0-------------------------------------------------------------------------|
|--------------------------3h----5-----7-----------------3-----5-----7-------|
|--------------------5-----------------------------5-------------------------|
|--------------5-----------------------------0-------------------------------|
|--------0-------------------------------------------------------------------|
|----------------------------------------------------------------------------|


|--3--------------3----------------------|-----------------0----------------------|
|--------------0--------0----------------|-----------3----------------------------|
|-----------5--------------5-------------|--------5-------------------------------|
|--------0--------------------0----------|-----0----------------------------------|
|-----5--------------5-----------5-------|--5-----------5-----5-------------------|
|----------------------------------------|----------------------------------------|


|--------------3-----0-------------------|----------------------------------------|
|--0--------------------------3--0-------|--3-----------3-------------------------|
|--0-----------------------0-------------|--------0--------0--2-------------------|
|--5-------------------------------------|--5--------5--------------4-------------|
|--5-------------------------------------|--3-----------------3-------------------|
|--3-----------------0-------------------|----------------------------------------|


|--------------3-----0-------------------|----------------------------------------|
|-----------------------------3--0-------|--3-----------3-----------3-------------|
|--------0-------------------------------|--5-----0--5--------------5-----4-------|
|--------2-----2-----------0-------------|--3-------------------------------------|
|-----2----------------------------------|--0--------------------5----------------|
|--0-------------------------------------|--------------------3-------------------|


|----------------------------------------|--0-------------------------------------|
|--5-----3-----5-----------------3-------|--------------1-------------------------|
|--------------------4-----5-------------|-----------0--------2-----2-------------|
|--6--6-----6-----6--3-------------------|----------------------------------------|
|----------------------------------------|--------3-----------3-------------------|
|--4-----------------4-------------------|----------------------------------------|


|--0-----------------0-----2-----3-------|--5-----2-----0-------------------------|
|--0-----------5-----2-----3-----5-------|--6-----3-----1-----3-------------------|
|--4-----2-----4-------------------------|--------------------3-----4-----2-------|
|--5-------------------------------------|--------------------------5-----0-------|
|--4-------------------------------------|--------------------1-----3-------------|
|--------------------2-----3-----5-------|--6-----3-----1-------------------------|

--------------3-----0-------------------|
-----------------------------3--0-------|
--0--------0--------------0-------------|
--5-------------------------------------|
--5-------------------------------------|
--------------------0-------------------|


|----------------------------------------------------------------------------|
|--3-----------------------3-------------------------------------------------|
|--------------0-----------------------2--------------------3p-2-----0-------|
|--5-----------------5-------------------------------------------------------|
|--3-----------------------------------3-------------------------------------|
|----------------------------------------------------------------------------|


|----------------------------------------|----------------------------------------|
|--------------------0-----1-----3-------|--------5-----------------------7-------|
|--------0-----2--x--4-----2-----4-------|--------------4-----------4-------------|
|--------2-----------5-------------------|-----7-----------7--------7-------------|
|-----2--------------------0-----2-------|--4-----------------4-----4-------------|
|--0-------------------------------------|----------------------------------------|


|----------------------------------------|--3-------------------------------------|
|--8-----------------8-------------------|--6-----6-----5-----3-----------3-------|
|--7-----------------7-------------------|--5--5--------------------5-------------|
|--5-----------------5-------------------|--------------------3-------------------|
|----------------------------------------|----------------------------------------|
|--8-----------------6-------------------|--5-----------------6-------------------|


|--0-------------------------------------------------------------------------|
|--------------------------3h----5-----7-----------------3-----5-----7-------|
|--------------------5-----------------------------5-------------------------|
|--------------5-----------------------------0-------------------------------|
|--------0-------------------------------------------------------------------|
|----------------------------------------------------------------------------|

                                        
|--3-----------------------3-------------------------------------------------|
|--------------------0-----------------------------------------5-----7-------|
|--------------2-----------------------------------------4-------------------|
|--------0-----------------------------------------5-------------------------|
|--------------------------------------------5-------------------------------|
|--------------------------------------3-------------------------------------|


|----------------------------------------|
|--------8-------------------------------|
|--------9-----------12------------------|
|-----------10---------------------------|
|-----10-------------13----13------------|
|--8-----------------9-------------------|


|--3----------------2h-3p-2----------0--------------------------------------------------------------------|
|--3--------------------------------------------------3-----------------2-----------------3---------------|
|--0--------------------------------------------------0---------------------------------------------------|
|--0--------------------------------------------------2---------------------------------------------------|
|---------------------------------------------------------------------------------------------------------|
|-----------------------------------------------------0---------------------------------------------------|


|--0-------------------------------------------------------------------------|
|--------------------------2-----5-----7-----------------4-----5-----7-------|
|--------------------4-----------------------------5-------------------------|
|--------------5-----------------------------0-------------------------------|
|--------0-------------------------------------------------------------------|
|----------------------------------------------------------------------------|


|--3--------------3----------------------|-----------------0----------------------|
|--------------0--------0----------------|-----------3-----------3----------------|
|-----------5--------------5-------------|--------5-----------------5-------------|
|--------0--------------------0-----0----|-----0-----------------------0-----0----|
|-----5--------------5-----------5-------|--5-----------5-----5-----------5-------|
|----------------------------------------|----------------------------------------|


|-----------------3----------------------|----------------------3---------------------|
|-----------0-----------0----------------|-----------------4---------4----------------|
|--------5-----------------5-------------|------------3-------------------5-----------|
|-----0-----------------------0-----0----|-------3------------------------------------|
|--5-----------5-----5-----------5-------|--------------------------------------------|
|----------------------------------------|--4-----------------------------------------|
             
   |-- Natural Harmonics --|
|--------------------------------------------------|------------------2-------------------------|
|------12------------------------------------------|-------------2---------2--------------------|
|--19----------12----------------------------------|-------4--------------------4---------4-----|
|----------19----------12--------------------------|--4------------------------------4----------|
|------------------19----------12------------------|--------------------------------------------|
|--------------------------19------------15--------|--------------------------------------------|

            
            
Suggest correction
Creating personal tab
Creating personal tab
You can edit any tab online and save it as your Personal.

You can edit, replace or remove any tab part or add personal notes – all changes will be seen only by you.

Personal tabs can be accessed anytime from any device, even offline.
Learn more »
Give kudos to tab author, rate the tab!
1 2 3 4 5
comments
print report bad tab
guest
You may want to rate the tab now too:
select rating
Wanna post a correction for this tab? Suggest correction