Oops, an error
Loading. Please wait.

Die Hoffnung Ist Was Uns Bleibt chords

55 views 1 this week
no commentswrite comment
1 2 3 4 5
3 more votes to show rating
add to favorites
×
Save as Personal and add changes to this tab that will be seen only by you. Learn more ›
×
You can save this tab as Personal to edit and correct it or add notes. All changes will be seen only by you. Learn more »
launch autoscroll
font size
0
reset
transpose
0
reset
display chords
guitar tuner
edit
Autoscroll
slow
fast
+/-
esc
set tempo
stop
Author
Strumming
There is no strumming pattern for this song yet. and get +5 IQ
[Intro]

e|------------------|------------------|------------------|------------------|
b|------------------|------------------|------------------|------------------|
g|------------------|------------------|------------------|------------------|
D|-6-8-9-8----8-9-8-|---8-9-8----8-9-8-|-6-8-9-8----8-9-8-|---8-9-8-11-8-9-8-|
A|--------7---------|-9------9---------|--------7-7-------|-9----------------|
E|------------------|------------------|------------------|------------------|

e|------------------|------------------|------------------|------------------|
b|------------------|------------------|------------------|------------------|
g|------------------|------------------|------------------|------------------|
D|-6-8-9-8----8-9-8-|---8-9-8----8-9-8-|-6-8-9-8----8-9-8-|---8-9-8----8-9-8-|
A|--------7---------|-9------9---------|--------7-7-------|-9------9---------|
E|------------------|------------------|------------------|------------------|
   G#      Em         B      F#         G#       Em         B      F#     (2. Gitarre)

[Bridge]

G# Em B F# G# Em B F#


[Verse 1]

G#                      Em
Alles wird sich ändern, hast du mal zu mir gesagt.
B                             F#
Ängste werden schwinden und die Nacht wird bald zum Tag.
G#                      Em
Kriege werden enden und der Hunger wird vergehen.
B                        F#
Ich glaube an die Worte, habe Hoffnung sie zu sehen.


[Refrain]

Em      F#       G#               Em      F#       G#
Die Hoffnung ist was uns bleibt - Sie wird nie vergehen!
Em      F#       G#               Em      F#       G#
Denn das Leben ist viel zu kostbar, um es alles zu geben!


[Interlude]

e|------------------|------------------|------------------|------------------|
b|------------------|------------------|------------------|------------------|
g|------------------|------------------|------------------|------------------|
D|-6-8-9-8----8-9-8-|---8-9-8----8-9-8-|-6-8-9-8----8-9-8-|---8-9-8----8-9-8-|
A|--------7---------|-9------9---------|--------7-7-------|-9------9---------|
E|------------------|------------------|------------------|------------------|
   G#      Em         B      F#         G#       Em         B      F#     (2. Gitarre)


[Verse 2]

G#                        Em
Nie mehr schlechte Laune, nur noch Party, Bier und Spaß.
B                              F#
AIDS wird bald geheilt und die Liebe schlägt den Hass.
G#                          Em
Frauen werden sprechen und wir Männer es verstehen.
B                             F#
Ich glaube an die Worte, habe Hoffnung sie zu sehen.


[Refrain]

Em      F#       G#               Em      F#       G#
Die Hoffnung ist was uns bleibt - Sie wird nie vergehen!
Em      F#       G#               Em      F#       G#
Denn das Leben ist viel zu kostbar, um es alles zu geben!


[Solo]

G# Em B F# G# Em B F#


[Verse 3]

G#                        Em
Nie mehr tote Tiere - alle essen nur Salat
B                             F#
Guttenberg wird Kanzler - das Benzin bezahlt der Staat
G#                        Em
GEZ wird abgeschafft und Gras legalisiert
B                             F#
Glaubst du etwa wirklich dran, das so etwas je passiert?


[Refrain]

Em      F#       G#               Em      F#       G#
Die Hoffnung ist was uns bleibt - Sie wird nie vergehen!
Em      F#       G#               Em      F#       G#
Denn das Leben ist viel zu kostbar, um es alles zu geben!


[Ending]

e|------------------|------------------|
b|------------------|------------------|
g|------------------|------------------|
D|-6-8-9-8----8-9-8-|---8-9-8-11-8-9-8-|
A|--------7-7-------|-9----------------|
E|------------------|------------------|

            
            
Suggest correction
Creating personal tab
Creating personal tab
You can edit any tab online and save it as your Personal.

You can edit, replace or remove any tab part or add personal notes – all changes will be seen only by you.

Personal tabs can be accessed anytime from any device, even offline.
Learn more »
Give kudos to tab author, rate the tab!
1 2 3 4 5
comments
print report bad tab
guest
You may want to rate the tab now too:
select rating
Wanna post a correction for this tab? Suggest correction