Oops, an error
Loading. Please wait.

Strolling Down The Highway tab

version 1
version 1

Whole song

Interactive

17,302 views 15 this week
2 commentsread comments
1 2 3 4 5
x 7
add to favorites
×
Save as Personal and add changes to this tab that will be seen only by you. Learn more ›
×
You can save this tab as Personal to edit and correct it or add notes. All changes will be seen only by you. Learn more »
launch autoscroll
font size
0
reset
how to read this tab
guitar tuner
edit
Autoscroll
slow
fast
+/-
esc
set tempo
stop
Standard Tuning
Capo 5th fret for studio version

e|---------0--------0--------|------------------------|------------------------|
B|---2-----------3--------1--|-----------1-------0----|------2--------2---2----|
G|------------1--------------|----2----2------2-----2-|------2--------2---2----|
D|--------------------0------|-------0-----------0----|------2--------2---2----|
A|---3b4---0-----2-----------|------------------------|---0-----0--------------|
E|-0-------------------------|-2------------2---------|------------0--------0--|

e|---------0--------0--------|------------------------|------------------------|
B|---2-----------3--------1--|-----------1-------0----|------2--------2---2-2--|
G|------------1--------------|----2----2------2-----2-|------2--------2---2----|
D|--------------------0------|-------0-----------0----|------2--------2---2----|
A|---3b4---0-----2-----------|------------------------|---0-----0--------------|
E|---------------------------|-2------------2---------|------------0-----------|

e|-----5-----------0-----2|--------------2h3p2p0----|--------0--------0--------|
B|--7--------8------------|-----3-------------------|--2-----------3-------2---|
G|------------------------|-----------2-------------|-----------1----------2---|
D|------------------------|----------------------0--|--------------------0-----|
A|--0-----0-----0-----0---|--0-----0-----0----------|--3b4---0-----2-----------|
E|------------------------|------------------------0|--------------------------|

e|------------------------|-------------------------|------------------------|
B|------------------------|-----------2-----2-------|-----------5-----5------|
G|-----2-p0--2-----2-----2|-----------4-----4-------|-----------3-----3------|
D|-----2-----------2------|-----3-------------------|-----4----------------0hI
A|--0-----0-----0-----0---|--4-----0-----0-----4----|--4-----0-----0-----4---|
E|------------------------|-----------------------0-|------------------------|

e|--------0--------0---------|---------------------------|
B|-----------3b4-------------|---------------------------|
G|--------------------0h1p0--|--0h1p0--0h1p0---0h1p0-----|
D|--2--2--------------------2|---------------------------|
A|---------------------------|-------2-------2-------2---|
E|--0-----0-----0-----0------|--0------0-------0-------0-|


************************************

| b  Bend
| h  Hammer-on
| p  Pull-off

************************************

            
            
Suggest correction
Creating personal tab
Creating personal tab
You can edit any tab online and save it as your Personal.

You can edit, replace or remove any tab part or add personal notes – all changes will be seen only by you.

Personal tabs can be accessed anytime from any device, even offline.
Learn more »
comments
print report bad tab
2 comments total.
-1 reply
tomdood55 20 Sep 13, 2006 01:14 PM

A average tab tbh, for a start it is cappo'd at the 3rd fret when bert played it, seems a decent tab though and for a fairly advanced song its a good effort, 4 stars

-1 reply
preservepost 10 Dec 12, 2014 10:42 PM

The last two lines have 7 strings. I think those open bass notes should be on the low E string.

guest
Wanna post a correction for this tab? Suggest correction