Oops, an error
Loading. Please wait.

Girl With Yellow Hair chords

637 views 1 this week
2 commentsread comments
1 2 3 4 5
x 3
add to favorites
×
Save as Personal and add changes to this tab that will be seen only by you. Learn more ›
×
You can save this tab as Personal to edit and correct it or add notes. All changes will be seen only by you. Learn more »
launch autoscroll
font size
0
reset
transpose
0
reset
display chords
guitar tuner
backing track
0:00
0:00
edit
Autoscroll
slow
fast
+/-
esc
set tempo
stop
Author
Difficulty
Strumming
There is no strumming pattern for this song yet. and get +5 IQ
Verse 1 (Palm Muted)
G
Been trying to get to heaven,
D
since she was eleven.
C
The girl with yellow hair who said she never really wanted to 

Chorus (No P.M)
G             D
go to school, go to school.
C (Palm Muted)
The girl with yellow hair, 

who said she never really wanted to 
G             D
go to school, go to school
C (Palm Muted)
break the rules.

Verse 2 (Palm Muted)
G
Been trying to get to heaven
(trying to get to heaven)
D
since she was eleven 
(since she was eleven)
C
the girl with yellow hair who stayed in bed and never wanted 

Chorus (No P.M)
G               D
to go to work , go to work.
C (Palm Muted)
The girl with yellow hair who stayed in bed 
G                                 D
and never needed to go to church ,go to church,
C 
wont go to church. 

Bridge (Palm Muted)
E                     A 
She’s the one who can save my soul, 
           D
Oh she can destroy it 
E                      A                            
she’s the girl who can help the world, 
D
but she just ignores it.

(solo)
e|-------------------------------------------------------------------------|
B|-------------------------------------------------------------------------|
G|-------------------------------------------------------------------------|
D|-----------0~-7-7-7-5-9-7~-7-9----------------------------------5-55555--|
A|-2-0-2-0-2---------------------10-10-10-10-9-10~-10-10-10-9-10~-5-55555--|
E|----------------------------------------------------------------3-33333--|
                                                              P.M|--------

e|-------------------------------------------------------------------------|
B|-------------------------------------------------------------------------|
G|-------------------------------------------------------------------------|
D|-7-7-7-5-9-7~------------------------------------------------------------|
A|-------------10-10-10-10-9-10~-10-10-10-9-10~---------------------------|
E|-------------------------------------------------------------------------|

Verse 3 (Palm Muted)
G
Been trying to get to heaven, 
(Trying to get to heaven)
D
since she was eleven.
(Since she was eleven)
G
Been trying to get to heaven,
(trying to get to heaven)
D
since she was eleven.
(since she was eleven)

Chorus (No Palm Mute)
C (only play once)
The girl with yellow hair who said 

she never really wanted to 
G             D
go to school, go to school.
C (only play once)
The girl with yellow hair who stayed in bed 
G
and never wanted to go to work
D
go to the church.

C(Palm Muted)
The girl with yellow hair, who said she never really wanted to get out of 
                             G
bed and get dressed to go to school.

            
            
Suggest correction
Creating personal tab
Creating personal tab
You can edit any tab online and save it as your Personal.

You can edit, replace or remove any tab part or add personal notes – all changes will be seen only by you.

Personal tabs can be accessed anytime from any device, even offline.
Learn more »
Give kudos to tab author, rate the tab!
1 2 3 4 5
comments
print report bad tab
2 comments total.
+1 reply
mickmars2 528 May 10, 2007 06:55 AM

Spot on, great song. can't get it out of my head!
There's a few lead parts in some places i managed to
tab.

play this through the second verse and chorus.

G D
been tryin to get to heaven since she was eleven
e---------------------------------------------------
b-----------------3---------------------------3-----
g--------------0---------------------------2--------
d-----------0---------------------------0-----------
a-----------------------------------0---------------
e-----3---------------------------------------------

C
the girl with yellow hair who..................
e----------------------------------------------
b-----------------3----------------------------
g-------------0--------------------------------
d--------2-------------------------------------
a----3-----------------------------------------
e----------------------------------------------

G D C
go to school, go to school, the girl with yellow hair who...
e------------------------------------------------------
b-----3------------3-------------------------3---------
g----0------------2-----------------------0------------
d---0------------0-------------------2-----------------
a--------------0-----------------3---------------------
e-3----------------------------------------------------

Then near the end when the instruments stop.
C
the girl with yellow hair who stayed in bed and never wanted to
e----------------------------------------------------------------
b-----------------------------------------------------10--10--10-
g-----------------------------------------------------12b-12b-12b
d----------------------------------------------------------------
a----------------------------------------------------------------
e----------------------------------------------------------------

Peace!

+1 reply
Mayniac 10 Oct 22, 2007 06:38 AM

Nice tab! Works perfectly, and it sounds great with a whole band. And you don't need the lead guitar that much. I barely noticed it until I played the song on full blast

guest
You may want to rate the tab now too:
select rating
Wanna post a correction for this tab? Suggest correction