Oops, an error
Loading. Please wait.

The Shoop Shoop Song Its In His Kiss bass

31 views 3 this week
no commentswrite comment
1 2 3 4 5
3 more votes to show rating
add to favorites
×
Save as Personal and add changes to this tab that will be seen only by you. Learn more ›
×
You can save this tab as Personal to edit and correct it or add notes. All changes will be seen only by you. Learn more »
launch autoscroll
font size
0
reset
guitar tuner
edit
Autoscroll
slow
fast
+/-
esc
set tempo
stop
[Intro]: "Does he love me, I wanna know..."
G|-------------------------|
D|-7----7-5----5-7----7-7--|
A|-------------------------|
E|-------------------------|


[Verse 1]: "(is it in his eyes) Oh no, you'll be deceived..."
G|--------------------------------------------|
D|----7----------7----------7----------7------|
A|-7----------7----------7----------7---------|
E|------5--5-------5--5-------5--5-------5--5-|


[Chorus 1]: "If you wanna know if he loves you so..."
G|---------------------------------------------|
D|------------5--5-7--7-------5--5--7---7------|
A|-5--5------------------5--5------------------|
E|------7--7------------------------------5--5-|


[Verse 2]: "(or is it in his face) Oh no, it's just his charm..."
G|--------------------------------------------|
D|----7----------7----------7----------7------|
A|-7----------7----------7----------7---------|
E|------5--5-------5--5-------5--5-------5--5-|


[Chorus 2]: "If you wanna know if he loves you so..."
G|-----------------------------------------------------------------|
D|------------5--5-7--7-------5--5--7--7-----------5--5------------|
A|-5--5------------------5--5-----------------5--5-------5----5--7-|
E|------7--7-----------------------------5--7---------------7------|


[Bridge 1]: "Oh oh oh, kiss him and squeeze him tight..."
G|--------------------------------------------------------------------|
D|-4--4------4--4-4----------4-------------0--2--2-------2--2-2-------|
A|------4--4---------4--2--2-------2--2-2----------2--2----------2----|
E|------------------------------2-----------------------------------5-|


[Verse 3]: "(how 'bout the way he acts) Oh no, that's not the way..."
G|--------------------------------------------|
D|----7----------7----------7----------7------|
A|-7----------7----------7----------7---------|
E|------5--5-------5--5-------5--5-------5--5-|


[Chorus 3]: "If you wanna know if he loves you so..."
G|------------------------------------------------------------------|
D|------------5--5-7--7-------5--5--7--7------------5--5--7-------4-|
A|-5--5------------------5--5------------------5--5------------5----|
E|------7--7-----------------------------5--7----------------7------|


[Instrumental Verse]: 
G|---------------------------------------------------------------------------------------|
D|----7----------7-------------7--7-------7--7-----7----------7--------------------------|
A|-7----------7-----------5--5-------5--5-------7----------7----------5-------------5--7-|
E|------5--5-------5--5------------------------------5--5-------5--5--------------7------|


[Bridge 2]: "Oh oh oh, kiss him and squeeze him tight..."
G|-----------------------------------------------------------------|
D|-4--4-------4----4----------------------0--2--2-------2--2-------|
A|------4--4-----4---4-2--2-------2----2----------2--2--------2----|
E|--------------------------2--2-----2---------------------------5-|


[Verse 4]: "(how 'bout the way he acts) Oh no, that's not the way..."
G|--------------------------------------------|
D|----7----------7----------7----------7------|
A|-7----------7----------7----------7---------|
E|------5--5-------5--5-------5--5-------5--5-|


[Chorus 4]: "If you wanna know if he loves you so..."
G|-----------------------------------------------------------------------------------|
D|------------5--5-7--7-------5--5--7--7------------5--5--7--7------------5--5--7----|
A|-5--5------------------5--5------------------5--5------------------5--5----------5-|
E|------7--7-----------------------------5--7------------------5--7------------------|

            
            
Suggest correction
Creating personal tab
Creating personal tab
You can edit any tab online and save it as your Personal.

You can edit, replace or remove any tab part or add personal notes – all changes will be seen only by you.

Personal tabs can be accessed anytime from any device, even offline.
Learn more »
Give kudos to tab author, rate the tab!
1 2 3 4 5
comments
print report bad tab
guest
You may want to rate the tab now too:
select rating
Wanna post a correction for this tab? Suggest correction