Oops, an error
Loading. Please wait.

Foam Born The Backtrack bass

version 1
version 1

Whole song

Interactive

5,131 views 1 this week
1 commentread comment
1 2 3 4 5
2 more votes to show rating
add to favorites
×
Save as Personal and add changes to this tab that will be seen only by you. Learn more ›
×
You can save this tab as Personal to edit and correct it or add notes. All changes will be seen only by you. Learn more »
launch autoscroll
font size
0
reset
guitar tuner
edit
Autoscroll
slow
fast
+/-
esc
set tempo
stop
Author
Difficulty
Tuning: C# Standard
High to Low (E, B, F#, C#, G#)

----------------------------------------------------------------
Updated: 2/13/08
I just added and changed a few things, it should be correct now.
----------------------------------------------------------------


Piano intro.


|-------------------------------------------------|
|-------------------------------------------------|
|-------------------------------------7-7-7-7-7-7-|
|-7-7-7-7-7-7-3-3-3-3-3-3-4-4-4-4-4-4-------------|
|-------------------------------------------------|

|-------------------------------------------------|
|-------------------------------------------9-6---|
|-------------------------------------7---7-----7-|
|-7-7-7-7-7-7-3-3-3-3-3-3-4-4-4-4-4-4-------------|
|-------------------------------------------------|

|--------------------------------------------------|
|-------9-6----------5~---------9-6----------9-6---|
|-----------7-----------------------7--7---7-----7-|
|-7---7--------3---3------4---4--------------------|
|--------------------------------------------------|x2

|-------------------------------------------------------|
|-------------------------------------------------9-6---|
|-------------/10-10-10-10-10-10-------------7--7-----7-|
|-7-7-7-7-7-7--------------------4-4-4-4-4-4------------|
|-------------------------------------------------------|

|--------------------------------------------------|
|-------9-6----------5~---------9-6----------9-6---|
|-----------7-----------------------7--7---7-----7-|
|-7---7--------3---3------4---4--------------------|
|--------------------------------------------------|

|-----9--------------------------|
|---6---9-6----------------------|
|-----------7--------------------|
|-7-----------3---3---3~---------|
|--------------------------------|


|-----------------------|
|-----------------------|
|-----------------------|
|-7--7-7-7-7-7--7-7-7-7-|
|-----------------------|x3

|----------------------|
|----------------------|
|----------------------|
|-7--7-7-7-7-10--7--10-|
|----------------------|

|-----------------------|
|-----------------------|
|-----------------------|
|-7--7-7-7-7-7--7-7-7-7-|
|-----------------------|x3

|----------------------|
|----------------------|
|----------------------|
|-7--7-7-7-7-10---7-10-|
|----------------------|

|-----------------------------------------------------|
|-----------------------------------------------------|
|-----------------------------------------------------|
|-7--7-7-7-7-7--7-7-7-7-10-10-10-10-10-10-------------|
|-----------------------------------------9-9-9-9-9-9-|


|-------------------------------------------------------------|
|-------------------------------------------------------------|
|-------------------------------------------------------------|
|-7-7-7-7-7-7-7-7-7-7-7-7-7-7-7-7-7-7-9-9-9-9-9-9-------------|
|-------------------------------------------------9-9-9-9-9-9-|

|-------------------------6-7\-|
|-------------------9-6-9------|
|------------------------------|
|------------------------------|
|-10-10-10-10-10-10------------|

|-------------------------------------------------------------|
|-------------------------------------------------------------|
|-------------------------------------------------------------|
|-7-7-7-7-7-7-7-7-7-7-7-7-7-7-7-7-7-7-9-9-9-9-9-9-------------|
|-------------------------------------------------9-9-9-9-9-9-|

|-------------------6--9--6\-|
|----------------------------|
|----------------------------|
|----------------------------|
|-10-10-10-10-10-10----------|

|-------------------------------------------------------------|
|-------------------------------------------------------------|
|-------------------------------------------------------------|
|-7-7-7-7-7-7-7-7-7-7-7-7-7-7-7-7-7-7-9-9-9-9-9-9-------------|
|-------------------------------------------------9-9-9-9-9-9-|

|-------------|
|-------------|
|-------------|
|-------2-5-1-|
|-2--2--------|

            
            
Suggest correction
Creating personal tab
Creating personal tab
You can edit any tab online and save it as your Personal.

You can edit, replace or remove any tab part or add personal notes – all changes will be seen only by you.

Personal tabs can be accessed anytime from any device, even offline.
Learn more »
Give kudos to tab author, rate the tab!
1 2 3 4 5
comments
print report bad tab
1 comment total.
0 reply
thebonefabric 10 Feb 19, 2008 08:43 PM

good tab first off. hats off to you. just have a minor correction.

this:

|--------------------------------------------------|
|-------9-6----------5~---------9-6----------9-6---|
|-----------7-----------------------7--7---7-----7-|
|-7---7--------3---3------4---4--------------------|
|--------------------------------------------------|

should be:

|------------------------------------------------------|
|-------9-6----------5/8~---------9-6----------9-6-----|
|-----------7-------------------------7--7---7-----7---|
|-7---7--------3---3------4---4------------------------|
|------------------------------------------------------|

guest
You may want to rate the tab now too:
select rating
Wanna post a correction for this tab? Suggest correction