Oops, an error
Loading. Please wait.

More Of Myself To Kill tab

version 2
version 2

Whole song

Interactive

591 views 1 this week
no commentswrite comment
1 2 3 4 5
1 last vote to show rating
add to favorites
×
Save as Personal and add changes to this tab that will be seen only by you. Learn more ›
×
You can save this tab as Personal to edit and correct it or add notes. All changes will be seen only by you. Learn more »
launch autoscroll
font size
0
reset
how to read this tab
guitar tuner
edit
Autoscroll
slow
fast
+/-
esc
set tempo
stop
Author
Difficulty
----------------------------------------------------------------------
More of Myself to Kill - Between The Buried And Me
----------------------------------------------------------------------
Tabbed by: Matt Parr [ \m/(-_-)\m/ ]

Tuning: C# Standard

Major lack of Self-Titled BTBAM stuff on here. I pretty much took the other
tab for this song and fixed it up quite a bit. Also tried to make it less 
confusing. Enjoy!

Feel free to make corrections.

BTBAM for Life.

     -Intro-
C#|---------------------------------------------------------|
G#|---------------------------------------------------------|
 E|-9~------------------------------------------------------|
 B|-9~--9~--------------------------------------------------|
F#|-7~--9~--6h7p6-6-6-6-6-6-6-6-6-6\3-3-3-3-3-3-3-3-3-3-3-3-|
C#|-----7~--------------------------------------------------|
                                      
C#|----------------------------------------------------------------|
G#|----------------------------------------------------------------|
 E|-9~---------------------------------------9-8-5-9-8-5-9-8-5-9-8-|
 B|-9~--9-9-9-9-9---------7-8-10-6-7-9-5-6-8-----------------------|
F#|-7~--9-9-9-9-9--7-8-10------------------------------------------|
C#|-----7-7-7-7-7--------------------------------------------------|

___________________________________________________________________________

    -Transition- [Left Guitar]  
C#|---------------------------| It's a basic structure.
G#|---------------------------| You can listen to the song to get an idea
 E|----------4/5\4------------| of how many times you play the chords.
 B|-6-6-6-6--4/5\4--5-5-5-5-5-|
F#|-6-6-6-6--2/3\2--5-5-5-5-5-| X2
C#|-4-4-4-4---------3-3-3-3-3-|      

                 [Both Guitars]
C#|---------------------------------------------------------------------|
G#|---------------------------------------------------------------------|
 E|-------------------------------------------------------4-5-----------|
 B|-9-9-9-9-12-12-12-12-8-8-8-8-8-8-8-8-------------------4-5-2-2-5-5-5-|
F#|-7-7-7-7-10-10-10-10-6-6-6-6-6-6-6-6--6-7\5-6\4-5\3-4--2-3-2-2-5-5-5-|
C#|-----------------------------------------------------------0-0-3-3-3-|
 PM                                                           . .
___________________________________________________________________________

     -Verse Type Thing-                                    [PLAY TWICE]
C#|-----------------------------------------------------|
G#|-----------------------------------------------------|
 E|----------4/5\4---------------------4/5\4------------|
 B|-6-6-6-6--4/5\4--5-5-5-5-5-6-6-6-6--4/5\4--5-5-5-5-5-|
F#|-6-6-6-6--2/3\2--5-5-5-5-5-6-6-6-6--2/3\2--5-5-5-5-5-|
C#|-4-4-4-4---------3-3-3-3-3-4-4-4-4---------3-3-3-3-3-|

C#|---------------------------------------------------------------------|
G#|---------------------------------------------------------------------|
 E|-------------------------------------------------------4-5-----------|
 B|-9-9-9-9-12-12-12-12-8-8-8-8-8-8-8-8-------------------4-5-2-2-5-5-5-|
F#|-7-7-7-7-10-10-10-10-6-6-6-6-6-6-6-6--6-7\5-6\4-5\3-4--2-3-2-2-5-5-5-|
C#|-----------------------------------------------------------0-0-3-3-3-|
 PM                                                           . .
___________________________________________________________________________

     -Transition #2-
C#|-----------------------|---------|
G#|-----------------------|---------|
 E|-6~--5~----------------|---------|
 B|-6~--5~--3~--6-5-3-2~--|-2-2---2-|
F#|-4~--3~--3~--6-5-3-2~--|-2-2---2-|
C#|---------1~--4-3-1-0~--|-0-0---0-|
 PM             . . .       . .   .
___________________________________________________________________________

    -Breakdown #1-
C#|---------------------------------|
G#|---------------------------------|
 E|---------------------------------|
 B|--------------555-444-333--------|
F#|-2-5-6-2-3-2--333-222-111--3/5\3-|
C#|-0-3-4-0-1-0---------------1/3\1-|
 PM . . . . . .  ... ... ...  . . .

C#|-----------------------------------------------------------------|
G#|-----------------------------------------------------------------|
 E|-----------------------------------------------------------------|
 B|-------------------------555-444-------------------------444-333-|
F#|-2-5-6-2-3-2-2-5-6-2-3-2-333-222-2-5-6-2-3-2-2-5-6-2-3-2-222-111-|
C#|-0-3-4-0-1-0-0-3-4-0-1-0---------0-3-4-0-1-0-0-3-4-0-1-0---------|
 PM . . . . . . . . . . . . ... ... . . . . . . . . . . . .

C#|-------------------------------|
G#|-------------------------------|
 E|-------------------------------|
 B|-------------------------3/5\3-|
F#|-2-5-6-2-3-2-2-5-6-2-3-2-3/5\3-|
C#|-0-3-4-0-1-0-0-3-4-0-1-0-1/3\1-|
 PM . . . . . . . . . . . . . . . 
___________________________________________________________________________

     -Transition Into Breakdown #2-  [RightGuitar]       [RightGuitar]
C#|-------------------------|---------|---------|---------|---------|
G#|-------------------------|---------|---------|---------|---------|
 E|-------------------------|---------|---------|---------|---------|
 B|-------------------------|---------|-555-444-|---------|-444-333-|
F#|-2-5-6-2-3-2-2-5-6-2-3-2-|---------|-333-222-|---------|-222-111-|
C#|-0-3-4-0-1-0-0-3-4-0-1-0-|-4-7-3-6-|---------|-3-6-2-5-|---------|
 PM . . . . . . . . . . . .   . . . .   ... ...   . . . .   ... ...

                  [LeftGuitar]
C#|---------------|---------|
G#|---------------|---------|
 E|---------------|---------|
 B|---------3/5\3-|---------|
F#|---------3/5\3-|---------|
C#|-2-5-1-4-1/3\1-|-4-7-3-6-|
 PM . . . . . . .   . . . .
___________________________________________________________________________

     -Breakdown #2-
C#|-----------------------------|-------------------------|
G#|-----------------------------|-------------------------|
 E|-----------------------------|---------11~---------11~-| x2
 B|----2---11---2-----1---2---1-|-9-10-11-11~-9-10-11-11~-|  
F#|-00-2-3-11-2-2-333-1-2-2-3-1-|-------------------------|
C#|-00---3----2---333---2---3---|-------------------------|
 PM .. . . .. . . ... . . . . . 

C#|-----------------------------|
G#|-----------------------------|
 E|-----------------------------|
 B|----2---11---2-----1---2---1-|  
F#|-00-2-3-11-2-2-333-1-2-2-3-1-|
C#|-00---3----2---333---2---3---|                                             
 PM .. . . .. . . ... . . . . . 

C#|------------------------------------------------------|
G#|------------------------------------------------------|
 E|------------------------------------------------------|
 B|------------------10-9-10-9-----------------------2~~~|
F#|-9-8-6-9--9-8-6-9-----------10h12P12-9h10p9-7h9p7-2~~~|
C#|--------------------------------------------------0~~~|
 PM                  .  . .  .
___________________________________________________________________________

     -Clean Melody-  [w/ Delay] 
C#|-------------------------------------0---------------|
G#|-------0-----------3-----------3-------3-------------|
 E|---0-----0-----0-----0-----5-----5-------5-4-4-5-4---| 
 B|-2---2-----2/4---4-----4/5---5-----5---------------5-|
F#|-----------------------------------------------------|  
C#|-----------------------------------------------------|

     -Rhythm-
C#|--------------------------------------------------------|
G#|--------------5--5-5-5--5-------------------------------|
 E|--------------7--7-7-7--7--5--5-5-5-5--5--5--5-5-5-5--5-|
 B|-2--2-2-2--2--7--7-7-7--7--5--5-5-5-5--5--5--5-5-5-5--5-|
F#|-2--2-2-2--2--5--5-5-5--5--7--7-7-7-7--7--7--7-7-7-7--7-|
C#|-0--0-0-0--0---------------8--8-8-8-8--8--8--8-8-8-8--8-|
___________________________________________________________________________

     -Clean Lead-   [w/ Delay]
C#|----------------------------------------------|-----------------|
G#|----------------------------------------------|-----------------|
 E|-11h12-------------------11-14-14/16-16~~ 12~-|-11-12~(Fadeout)-|
 B|-------12----12h14p12-12----------------------|-----------------|
F#|----------14----------------------------------|-----------------|
C#|----------------------------------------------|-----------------|

___________________________________________________________________________

     -Distortion Reboot- (TREMELO PICK ALL)
C#|-------------------------------------------------------------------|
G#|-------------------------------------------------------------------|
 E|-9-9-9-12-12-12-11-11-11----------9-9-9-12-12-12----------11-11-11-|
 B|-------------------------12-12-12----------------12-12-12----------|
F#|-------------------------------------------------------------------|
C#|-------------------------------------------------------------------|

C#|-------------------------------------------------------------|
G#|-------------------------------------------------------------|
 E|-9-9-9-------------------------------------------------------|
 B|-------12-12-12-10-10-10-9-9-9-10-10-10-9-9-9----------9-9-9-|
F#|----------------------------------------------12-12-12-------|
C#|-------------------------------------------------------------|

C#|----------------------------------------------------------------------|
G#|-------------------------------------------12-12-12-10-10-10----------|
 E|-9-9-9-12-12-12-11-11-11----------12-12-12-------------------11-11-11-|
 B|-------------------------12-12-12-------------------------------------|
F#|----------------------------------------------------------------------|
C#|----------------------------------------------------------------------|

C#|----------------------------------------------------------------|
G#|----------------------------------------------------------------|
 E|-12-12-12-11-11-11-9-9-9----------------------------------------|
 B|-------------------------12-12-12-10-10-10-9-9-9----------9-9-9-|
F#|-------------------------------------------------12-12-12-------|
C#|----------------------------------------------------------------|

*I can't figure out what the rhythm is playing*
___________________________________________________________________________

     -Lead #2-
C#|-------------------------------------------|
G#|-------------------------------------------|
 E|-------11h12-------11h12-------11h12-14-11-|
 B|-14----------14----------14----------------|
F#|----14----------14----------14-------------|
C#|-------------------------------------------|

C#|--------------------------------------------------|
G#|--------------------------------------------------|
 E|--------------------------14-12-11-12-11----11----|
 B|-------12-h14-------12h14----------------12----14-|
F#|-15-----------15----------------------------------|
C#|----15-----------15-------------------------------|

___________________________________________________________________________

     -KICK IT BACK INTO HIGH GEAR-
C#|-----------------------------------------------------------------|
G#|-----------------------------------------------------------------|
 E|-----------------------------------------------------------------|
 B|---------5h6p5-------------------------------5h6-----------------|
F#|-0-3-0-3-------000-6h7p6-000-7\1-0-5-0-6-0-3-----6h7-3-0-3-0-000-|
C#|-0-1-0-1-------000-------000-----0-3-0-4-0-1---------1-0-1-0-000-|
 PM . . . .       ...       ...     . . . . . .         . . . . ...

C#|------------------------------------------------------------------------|
G#|------------------------------------------------------------------------|
 E|------------3-3-3-3---------------------------------------------3-3-3-3-|
 B|-------0-----------2-2-2-2-----------------------1-1-1-1-4-4-4-4--------|
F#|-0-1-4---4-1--------------4-4-4-4-0-0-0-0-3-3-3-3-----------------------|
C#|------------------------------------------------------------------------|
                                                  
C#|---------------------------------------------------------------------|
G#|---------------------------------------------------------------------|
 E|-6-----5-----2-----------------6---6---------------------------6---6-|
 B|-------------------------------5---5-----------------5-----6---5---5-|
F#|---0-0---0-0---3-000-3-000-0-0---0---222-5-6-5-3-5-6---0-0---0---0---|
C#|---0-0---0-0---1-000-1-000-0-0---0---000-3-4-3-1-3-4---0-0---0---0---|
 PM   . .   . .   . ... . ... . .   .   ... . . . . . .   .  .  .   .

C#|---------------------------------|
G#|---------------------------------|
 E|---------------------------6---6-|
 B|-----------------5-----6---5---5-| x3
F#|-222-5-6-5-3-5-6---0-0---0---0---|
C#|-000-3-4-3-1-3-4---0-0---0---0---|
 PM ... . . . . . .   . .   .   .

___________________________________________________________________________

      -Transition-    Listen to song to figure out how many times you play
C#|-------------------------------------------------------| the octave
G#|-------------------------------------------------------| slides
 E|-------6---6-------------------------------------------|
 B|-----6-5---5-5-----6-5-----6-5-----6-5-----6-5-----6-5-|  
F#|---------0---------------------------------------------| 
C#|-3-4-----0-----3-4-----3-4-----3-4-----3-4-----3-4-----|
 PM         .     . . . . . . . . 

C#|------------------------------------------------------------|
G#|------------------------------------------------------------|
 E|---------------------------------3-2-----3-2-----3-2--------|
 B|-----6-5-----6-5-----6-5-----6-5-------------------------0~-|
F#|-------------------------------------1-0-----1-0-----1-0-1~-|
C#|-3-4-----3-4-----3-4-----3-4-----------------------------0~-|
 PM                 . . . . . . . .                         .

[Rhythm is doing some sort of simple chug pattern with a some
other stuff in between, can't make it out]
___________________________________________________________________________

     -Tremelo Picking run- Play Twice
C#|--------------------------------------------------------------------|
G#|--------------------------------------------------------------------|
 E|-111111111111111111111111-44444444-33333333333333333333333333333333-|
 B|--------------------------------------------------------------------|
F#|--------------------------------------------------------------------|
C#|--------------------------------------------------------------------|

C#|--------------------------------------------------------------------|
G#|--------------------------------------------------------------------|
 E|--------------------------------------------------------------------|
 B|--------------------------------------------------------------------|
F#|-444444444444444444444444-22222222-11111111111111111111111111111111-| 
C#|--------------------------------------------------------------------|

___________________________________________________________________________

     -Transition Back into Breakdown #2-
C#|------------------------------------------------------------------|
G#|------------------------------------------------------------------|
 E|--------4-4-4-4-3~---------------------4-4-4-4-3~-----------------|
 B|-12/2~~-5-5-5-5-4~-444-----333-----2~--5-5-5-5-4~-444-----333-----|
F#|-12/2~~------------222-555-111-444-2~-------------222-555-111-444-|
C#|-12/0~~----------------333-----222-0~-----------------333-----222-|
 PM                   ... ... ... ...                ... ... ... ...

C#|--------------------------------------------------|
G#|--------------------------------------------------|
 E|-----------------------4-4-4-4-3~-----------------|
 B|-----------------------5-5-5-5-4~-444-----333-----|  x2
F#|-2-2-2-2-2-2-2-2-2-2-2------------222-555-111-444-|
C#|-0-0-0-0-0-0-0-0-0-0-0----------------333-----222-|
 PM . . .   . .   . .   .            ... ... ... ...  

___________________________________________________________________________

      -Breakdown #2 [REDUX]-
C#|---------| |------------------------------|------------------------|
G#|---------| |------------------------------|------------------------|
 E|---------| |------------------------------|---------11---------11--| x3
 B|---------| |-----2---11---2-----1---2---1-|-9-10-11-11-9-10-11-11--|
F#|---------| |-0-0-2-3-11-2-2-333-1-2-2-3-1-|------------------------|
C#|-4-7-3-6-| |-0-0---3----2---333---2---3---|------------------------|
 PM . . . .     . . . . .. . . ... . . . . .

C#|-----------------------------|----------------------|
G#|-----------------------------|----------------------|
 E|-----------------------------|----------------------|
 B|----2---11---2-----1---2---1-|-------------------2~-|
F#|-00-2-3-11-2-2-333-1-2-2-3-1-|-9-8-6-9--9-8-6-9--2~-|
C#|-00---3----2---333---2---3---|-------------------0~-|

____________________________________________________________________________

     -Outro-
C#|-----------------------------------------------------------------|
G#|-----------------------------------------------------------------|
 E|-----------------------------------------------------------------|
 B|---6-----6-----6-----6-----9-----8-----8-----8-----8-----8-----8-|
F#|-0---0-0---0-0---0-0---0-0---0-0---0-0---0-0---0-0---0-0---0-0---|
C#|-0---0-0---0-0---0-0---0-0---0-0---0-0---0-0---0-0---0-0---0-0---|
 PM .   . .   . .   . .   . .   . .   . .   . .   . .   . .   . .

C#|-----------------------------------------------------------------|
G#|-----------------------------------------------------------------|
 E|-----------------------------------------------------------------|
 B|---6-----6-----6-----6-----9-----8-----8-----8-----8-----8-----8-|
F#|-0---0-0---0-0---0-0---0-0---0-0---0-0---0-0---0-0---0-0---0-0---|
C#|-0---0-0---0-0---0-0---0-0---0-0---0-0---0-0---0-0---0-0---0-0---|
 PM .   . .   . .   . .   . .   . .   . .   . .   . .   . .   . . 

C#------------------------------------------------------------------|
G#|-----------------------------------------------------------------|
 E|-----------------------------------------------------------------|
 B|---6-----6-----6-----6-----9-----8-----8-----8-----8-----8-----8-|
F#|-0-7-0-0-7-0-0-7-0-0-7-0-0-7-0-0---7-0---7-0---7-0---7-0---7-0---|
C#|-0---0-0---0-0---0-0---0-0---0-0-----0-----0-----0-----0-----0---|
 PM .   . .   . .   . .   . .   . .     .     .      .     .     . 

C#------------------------------------------------------------------|
G#|-----------------------------------------------------------------|
 E|-----------------------------------------------------------------|
 B|---6-----6-----6-----6-----9-----8-----8-----8-----8-----8-----8-|
F#|-0-7-0-0-7-0-0-7-0-0-7-0-0-7-0-0---7-0---7-0---7-0---7-0---7-0---|
C#|-0---0-0---0-0---0-0---0-0---0-0-----0-----0-----0-----0-----0---|
 PM .   . .   . .   . .   . .   . .     .     .      .     .     . 
                       
C#|--------------------------|
G#|--------------------------|
 E|--------------------------|
 B|-5^^~--4^^~--2^^~--<2>~~--|
F#|--------------------------|
C#|--------------------------|

____________________________________________________________________________


************************************

| /   slide up
| \   slide down
| h   hammer-on
| p   pull-off
| .   Palm Mute (PM)
| ~   vibrato
| +   harmonic
| x   Mute note
| b   Bend
| pb  Pre-bend
| br  Bend release
| pbr Pre-bend release
| brb Bend release bend

************************************

            
            
Suggest correction
Creating personal tab
Creating personal tab
You can edit any tab online and save it as your Personal.

You can edit, replace or remove any tab part or add personal notes – all changes will be seen only by you.

Personal tabs can be accessed anytime from any device, even offline.
Learn more »
Give kudos to tab author, rate the tab!
1 2 3 4 5
comments
print report bad tab
guest
You may want to rate the tab now too:
select rating
Wanna post a correction for this tab? Suggest correction