Oops, an error
Loading. Please wait.

Emma Blowguns Last Stand tab

by Beulah
2,049 views 12 this week
no commentswrite comment
1 2 3 4 5
x 4
add to favorites
×
Save as Personal and add changes to this tab that will be seen only by you. Learn more ›
×
You can save this tab as Personal to edit and correct it or add notes. All changes will be seen only by you. Learn more »
launch autoscroll
font size
0
reset
how to read this tab
guitar tuner
edit
Autoscroll
slow
fast
+/-
esc
set tempo
stop
Author
-------------------------------------------------------------------------------
                             Emma Blowgun's Last Stand - Beulah
-------------------------------------------------------------------------------
Tabbed by: Jeff
Email:


main synth theme tabbed for guitar

e|--5---2------------2-------------------2--5--2--5--2--5-------------------------------|
B|---------5--3---5-----3---------------------------------------------------------------|
G|--------------------------- repeated -------------------------------------------------|
D|--------------------------------------------------------------------------------------|
A|--------------------------------------------------------------------------------------|
E|--------------------------------------------------------------------------------------|

gtr

e|---------------------------------------------------------------------------|
B|---------------------------------------------------------------------------|
G|---------------------------------------------------------------------------|
D|----4-7-4-7-4---4-7-4-7----------------------------------------------------|
A|--5-----------5---------5---5---5---5--------------------------------------|
E|--------------------------7---7---7----3-3--5------------------------------|

D                          E             G
Goodness knows it's been a wonderful run
    D                     E                  G
The autumn lakes with the children were swans
     D                                                      E           G
Your mothers convictions and your fathers predictions don't seem so insane
D
They laugh, they say
your treasures are fake
          E            G
But don't throw it away

D                         E             G
You've been framed with a beautiful name
D                            E            G
You've been saved but you've lost your head
     D                                        E              G
With halos and praise, the Trinity saves, But three's a crowd
D
You flirt,
you drink,                         E               G
you can't stop your winking at the boys in the bar

D                 E             G
All you need is a gun and a car

D                     E                 G
A country song if you don't have the heart.
D
Cowboys and injuns, and the positive minions
          E                 G
where the highway's not far
D
All you know, your shadow's a ghost
             E              G
Don't let it scare you away


| /  slide up
| \  slide down
| h  hammer-on
| p  pull-off
| ~  vibrato
| +  harmonic
| x  Mute note
===============================================================================

            
            
Suggest correction
Creating personal tab
Creating personal tab
You can edit any tab online and save it as your Personal.

You can edit, replace or remove any tab part or add personal notes – all changes will be seen only by you.

Personal tabs can be accessed anytime from any device, even offline.
Learn more »
comments
print report bad tab
guest
You may want to rate the tab now too:
select rating
Wanna post a correction for this tab? Suggest correction