Oops, an error
Loading. Please wait.

Animal Style tab

version 1
version 1

Whole song

Interactive

15,268 views 42 this week
5 commentsread comments
1 2 3 4 5
x 8
add to favorites
×
Save as Personal and add changes to this tab that will be seen only by you. Learn more ›
×
You can save this tab as Personal to edit and correct it or add notes. All changes will be seen only by you. Learn more »
launch autoscroll
font size
0
reset
how to read this tab
guitar tuner
edit
Autoscroll
slow
fast
+/-
esc
set tempo
stop
Please note that I am tabbing this up from live performances on youtube so there may be differences when the 
album version is released

Tuning: Drop C


[Intro]

D|----------------------|     D|--------------|
A|----------------------|     A|--------------|
F|------7------7----7---|     F|------7-------|
C|------7------7----7---| x3  C|------7-------|
G|--9-9----9-9----9-----|     G|--9-9----9-9--|
C|--9-9----9-9----9-----|     C|--9-9----9-9--|


[Verse]

D|---------------------------------------|
A|---------------------------------------|
F|---------------------------------------|
C|------12-----12--------5-------7-------| x8
G|--9-9----9-9----9----------------------|
C|--9-9----9-9----9--4-5---5-6-7---7-8---|


[Pre-Chorus]

D|------------------------------------------------------------------------|
A|------------------------------------------------------------------------|
F|------------------------------------------------------------------------|
C|-2-2-2-2--2-2-2-2--4-4-4-4--4-4-4-4--0-0-0-0--0-0-0-0--2-2-2-2--2-2-2-2-|
G|-2-2-2-2--2-2-2-2--4-4-4-4--4-4-4-4--0-0-0-0--0-0-0-0--2-2-2-2--2-2-2-2-|
C|-2-2-2-2--2-2-2-2--4-4-4-4--4-4-4-4--0-0-0-0--0-0-0-0--2-2-2-2--2-2-2-2-|


[Chorus]

D|--------------------------------------------------------------------------|
A|--------------------------------------------------------------------------|
F|--4-4-4-4--4-4-4-4--9-9-9-9--9-9-9-9--------------------------------------|
C|--4-4-4-4--4-4-4-4--9-9-9-9--9-9-9-9--5-5-5-5--5-5-5-5--7-7-7-7--7-7-7-7--|  
G|--2-2-2-2--2-2-2-2--7-7-7-7--7-7-7-7--5-5-5-5--5-5-5-5--7-7-7-7--7-7-7-7--|
C|--------------------------------------5-5-5-5--5-5-5-5--7-7-7-7--7-7-7-7--|

D|-------------------------------------------------------------------------|
A|-------------------------------------------------------------------------|
F|-4-4-4-4--4-4-4-4--------------------------------------------------------|
C|-4-4-4-4--4-4-4-4--2-2-2-2--2-2-2-2--5-5-5-5--5-5-5-5--7-7-7-7--7-7-7-7--|
G|-2-2-2-2--2-2-2-2--2-2-2-2--2-2-2-2--5-5-5-5--5-5-5-5--7-7-7-7--7-7-7-7--|
C|-------------------2-2-2-2--2-2-2-2--5-5-5-5--5-5-5-5--7-7-7-7--7-7-7-7--|

D|----------------------------------------------------------|
A|----------------------------------------------------------|
F|-4-4-4-4--4-4-4-4-----------------------------------------|
C|-4-4-4-4--4-4-4-4--0-0-0-0--0-0-0-0--5-5-5-5--5-5-5-5--2--|
G|-2-2-2-2--2-2-2-2--0-0-0-0--0-0-0-0--5-5-5-5--5-5-5-5--2--|
C|-------------------0-0-0-0--0-0-0-0--5-5-5-5--5-5-5-5--2--|


[Pre-Verse]

Lead Guitar

D|---------------------------------------------|
A|-------12------12-------12------12-----------|
F|--9h11----9h11-----9h11----9h11-----9h11-11--|  x2
C|---------------------------------------------|
G|---------------------------------------------|
C|---------------------------------------------|

Rhythm

D|---------------------------------------|
A|---------------------------------------|
F|---------------------------------------|
C|------12-----12--------5-------7-------| x2
G|--9-9----9-9----9----------------------|
C|--9-9----9-9----9--4-5---5-6-7---7-8---|


[Verse 2]

Lead

D|-----|
A|-----|
F|--11-| ring out
C|-----|
G|-----|
C|-----|

D|----------------|
A|--12----12-12---|
F|--x-----x--x----|
C|--9-----9--9----| x4
G|----------------|
C|----------------|

Rhythm

D|----------------------|
A|----------------------|
F|----------------------|
C|------5------7--------|
G|----------------------|
C|--4-5---5-6-7---7-8---|

D|---------------------------------------|
A|---------------------------------------|
F|---------------------------------------|
C|------12-----12--------5-------7-------| x4
G|--9-9----9-9----9----------------------|
C|--9-9----9-9----9--4-5---5-6-7---7-8---|


[Pre-Chorus]

D|------------------------------------------------------------------------|
A|------------------------------------------------------------------------|
F|------------------------------------------------------------------------|
C|-2-2-2-2--2-2-2-2--4-4-4-4--4-4-4-4--0-0-0-0--0-0-0-0--2-2-2-2--2-2-2-2-|
G|-2-2-2-2--2-2-2-2--4-4-4-4--4-4-4-4--0-0-0-0--0-0-0-0--2-2-2-2--2-2-2-2-|
C|-2-2-2-2--2-2-2-2--4-4-4-4--4-4-4-4--0-0-0-0--0-0-0-0--2-2-2-2--2-2-2-2-|


[Chorus]

D|--------------------------------------------------------------------------|
A|--------------------------------------------------------------------------|
F|--4-4-4-4--4-4-4-4--9-9-9-9--9-9-9-9--------------------------------------|
C|--4-4-4-4--4-4-4-4--9-9-9-9--9-9-9-9--5-5-5-5--5-5-5-5--7-7-7-7--7-7-7-7--| 
G|--2-2-2-2--2-2-2-2--7-7-7-7--7-7-7-7--5-5-5-5--5-5-5-5--7-7-7-7--7-7-7-7--|
C|--------------------------------------5-5-5-5--5-5-5-5--7-7-7-7--7-7-7-7--|

D|-------------------------------------------------------------------------|
A|-------------------------------------------------------------------------|
F|-4-4-4-4--4-4-4-4--------------------------------------------------------|
C|-4-4-4-4--4-4-4-4--2-2-2-2--2-2-2-2--5-5-5-5--5-5-5-5--7-7-7-7--7-7-7-7--|
G|-2-2-2-2--2-2-2-2--2-2-2-2--2-2-2-2--5-5-5-5--5-5-5-5--7-7-7-7--7-7-7-7--|
C|-------------------2-2-2-2--2-2-2-2--5-5-5-5--5-5-5-5--7-7-7-7--7-7-7-7--|

D|----------------------------------------------------------|
A|----------------------------------------------------------|
F|-4-4-4-4--4-4-4-4-----------------------------------------|
C|-4-4-4-4--4-4-4-4--0-0-0-0--0-0-0-0--5-5-5-5--5-5-5-5--2--|
G|-2-2-2-2--2-2-2-2--0-0-0-0--0-0-0-0--5-5-5-5--5-5-5-5--2--|
C|-------------------0-0-0-0--0-0-0-0--5-5-5-5--5-5-5-5--2--|


[Weird Bit]

Lead

D|--------------------------------------------------------------------13-10----------------13-10--------|
A|--7h10p7------7------7h10p7------7--------7h10p7------7-9---------------------------------------------|
F|---------10-7---10----------10-7---10-7----------10-7---------10-13-------13-10----10-13-------13-10--|
C|-----------------------------------------------------------12-------------------12--------------------| x2
G|------------------------------------------------------------------------------------------------------|
C|------------------------------------------------------------------------------------------------------|


Rhythm

D|---------------------------------------------------------------|
A|---------------------------------------------------------------|
F|-------------------2-2-2-4-4-4-4-x3----------------------------|
C|--3-3-3-4-4-4-4-4---------------------3-3--3-3-3---3-3--3-3-3--| x2  
G|---------------------------------------------------------------|
C|---------------------------------------------------------------|


[Chorus]

D|--------------------------------------------------------------------------|
A|--------------------------------------------------------------------------|
F|--4-4-4-4--4-4-4-4--9-9-9-9--9-9-9-9--------------------------------------|
C|--4-4-4-4--4-4-4-4--9-9-9-9--9-9-9-9--5-5-5-5--5-5-5-5--7-7-7-7--7-7-7-7--|  
G|--2-2-2-2--2-2-2-2--7-7-7-7--7-7-7-7--5-5-5-5--5-5-5-5--7-7-7-7--7-7-7-7--|
C|--------------------------------------5-5-5-5--5-5-5-5--7-7-7-7--7-7-7-7--|

D|-------------------------------------------------------------------------|
A|-------------------------------------------------------------------------|
F|-4-4-4-4--4-4-4-4--------------------------------------------------------|
C|-4-4-4-4--4-4-4-4--2-2-2-2--2-2-2-2--5-5-5-5--5-5-5-5--7-7-7-7--7-7-7-7--|
G|-2-2-2-2--2-2-2-2--2-2-2-2--2-2-2-2--5-5-5-5--5-5-5-5--7-7-7-7--7-7-7-7--|
C|-------------------2-2-2-2--2-2-2-2--5-5-5-5--5-5-5-5--7-7-7-7--7-7-7-7--|

D|----------------------------------------------------------|
A|----------------------------------------------------------|
F|-4-4-4-4--4-4-4-4-----------------------------------------|
C|-4-4-4-4--4-4-4-4--0-0-0-0--0-0-0-0--5-5-5-5--5-5-5-5--2--|
G|-2-2-2-2--2-2-2-2--0-0-0-0--0-0-0-0--5-5-5-5--5-5-5-5--2--|
C|-------------------0-0-0-0--0-0-0-0--5-5-5-5--5-5-5-5--2--|


[Outro]

D|---------------------------------------|
A|---------------------------------------|
F|---------------------------------------|
C|------12-----12--------5-------7-------| x3
G|--9-9----9-9----9----------------------|
C|--9-9----9-9----9--4-5---5-6-7---7-8---|

D|--------------------------------|
A|--------------------------------|
F|--------------------------------|
C|------12-----12--------5-----7--|
G|--9-9----9-9----9------------7--|
C|--9-9----9-9----9--4-5---5-6-7--|



************************************

| x  Dead note
| h  Hammer-on
| p  Pull-off

************************************

            
            
Suggest correction
Creating personal tab
Creating personal tab
You can edit any tab online and save it as your Personal.

You can edit, replace or remove any tab part or add personal notes – all changes will be seen only by you.

Personal tabs can be accessed anytime from any device, even offline.
Learn more »
comments
print report bad tab
5 comments total. Showing first comments.
+1 reply
Arrangatang 31 Jun 14, 2016 08:25 AM

Flawless tab. Cheers mate!

0 reply
Alexian3007 1,068 Jun 14, 2016 10:00 AM

No problem ma man

0 reply
tiagosousa28 12 Jul 21, 2016 02:26 PM, edited on August 27 2016, 06:20 pm

On the intro I prefer:D|----------------------| D|--------------|A|----------------------| A|--------------|F|------7-----7---7-----| F|------7-------|C|------7-----7---7----| x3 C|------7-------|G|--9-9----9-9----9-----| G|--9-9----9-9--|C|--9-9----9-9----9-----| C|--9-9----9-9--|

guest
You may want to rate the tab now too:
select rating
Wanna post a correction for this tab? Suggest correction