Oops, an error
Loading. Please wait.

Black Chandelier tab

version 2
version 2

Whole song

Interactive

41,307 views 66 this week
1 commentread comment
1 2 3 4 5
x 18
add to favorites
×
Save as Personal and add changes to this tab that will be seen only by you. Learn more ›
×
You can save this tab as Personal to edit and correct it or add notes. All changes will be seen only by you. Learn more »
launch autoscroll
font size
0
reset
how to read this tab
guitar tuner
edit
Autoscroll
slow
fast
+/-
esc
set tempo
stop
Author
Difficulty
Unregistered
intermediate
This is my first tab, so please forgive the poor formatting.

This is not 100% correct, but it sounds great and should tide over any Biffy fans.

I haven't got the time to put down the exact timings, however for the most part they are 
not complicated and I have tried to elaborate on the chorus.

Tuning:
Drop D down half a step


[Intro]
(Play to rhythm)

D#|-------------------------------------------------------------------------|
A#|-------------------------------------------------------------------------|
F#|--9----------------------------------------------------------------------|
C#|--10---------------------------------------------------------------------|
G#|--8----------------------------------------------------------------------|
C#|-------------------------------------------------------------------------|


[Verse]

D#|-------------------------------------------------------------------------|
A#|-------------------------------------------------------------------------|
F#|--9----7----7----7-------------------------------------------------------|
C#|--10---10---10---10---10-------------------------------------------------|
G#|--7----0----x----x----8--------------------------------------------------|
C#|------------9----10------------------------------------------------------|

(x2)

D#|-------------------------------------------------------------------------|
A#|-------------------------------------------------------------------------|
F#|--12---12---12---12---12-------------------------------------------------|
C#|--10---10---10---10---10-------------------------------------------------|
G#|--7----0----x----x----8--------------------------------------------------|
C#|------------9----10------------------------------------------------------|


[Verse]

D#|-------------------------------------------------------------------------|
A#|-------------------------------------------------------------------------|
F#|--9----7----7----7-------------------------------------------------------|
C#|--10---10---10---10---10-------------------------------------------------|
G#|--7----0----x----x----8--------------------------------------------------|
C#|------------9----10------------------------------------------------------|


Riff before pre-chorus

(working this out)


[Pre-Chorus]

D#|-------------------------------------------------------------------------|
A#|-------------------------------------------------------------------------|
F#|--9----9----9----9----10---12--------------------------------------------|
C#|--10---10---10---10---10---10--------------------------------------------|
G#|--12---11---10---9----8----8---------------------------------------------|
C#|-------------------------------------------------------------------------|


[Chorus]

D#|-------------------------------------------------------------------------|
A#|-------------------------------------------------------------------------|
F#|--------------------------7-99-77-99-77-99-7-----------------------------|
C#|--1010----10-------1010---10101010101010101010---------------------------|
G#|--7-7-----10-x8----7-7----0-00-00-00-00-00-0-----------------------------|
C#|----------10-------------------------------------------------------------|

D#|-------------------------------------------------------------------------|
A#|-------------------------------------------------------------------------|
F#|--7-7-----10-------9-9----12-----9--10-12-10-9---------------------------|
C#|--9-9-----10-x8----1010---10-x8--10-10-10-10-10--------------------------|
G#|--1010----8--------1010---0------0--0--0--0--0---------------------------|
C#|-------------------------------------------------------------------------|


[Bridge]

D#|-------------------------------------------------------------------------|
A#|-------------------------------------------------------------------------|
F#|-------------------------------------------------------------------------|
C#|--0--0--12-0-0--0--0--12-0-0--0--0--12-0-0--0--0-------------------------|
G#|--0--0--12-0-0--0--0--12-0-0--0--0--12-0-0--0--0-------------------------|
C#|--0--0--12-0-0--0--0--12-0-0--0--0--12-0-0--0--0--------(12\)------------|



************************************

| x  Dead note

************************************

            
            
Suggest correction
Creating personal tab
Creating personal tab
You can edit any tab online and save it as your Personal.

You can edit, replace or remove any tab part or add personal notes – all changes will be seen only by you.

Personal tabs can be accessed anytime from any device, even offline.
Learn more »
comments
print report bad tab
1 comment total.
0 reply
the_czar_ 41 Feb 08, 2013 09:03 AM

Verse is spot on for sure.

The little riff before the pre chorus is

D#|----------------
A#|----------------
F#|---7-7--9-9-----
C#|---1010-1010----
G#|---8-8--8-8-----
C#|----------------


And I think the first version has an accurate bridge section. Great tab though, helped a lot.

guest
Wanna post a correction for this tab? Suggest correction