Oops, an error
Loading. Please wait.

Flammable tab

version 2
version 2

Whole song

  • This is a more detailed version of Simon Neil's pl... Show more
367 views 27 this week
no commentswrite comment
1 2 3 4 5
3 more votes to show rating
add to favorites
×
Save as Personal and add changes to this tab that will be seen only by you. Learn more ›
×
You can save this tab as Personal to edit and correct it or add notes. All changes will be seen only by you. Learn more »
launch autoscroll
font size
0
reset
how to read this tab
guitar tuner
edit
Autoscroll
slow
fast
+/-
esc
set tempo
stop
About this tab version
This is a more detailed version of Simon Neil's playing of the song, as observed live and in the official music video. Was this info helpful? Yes No
This is my first tab, and after looking at others elsewhere, I felt the need to make one much closer to what
is actually played. Yes it is in E Standard tuning, not Drop C (unusual for Biffy Clyro, I know) but after 
watching several videos of Biffy Clyro playing this, I feel I made the closest version possible. I may update 
later with Mike Vennart's (touring/lead guitarist) parts. Enjoy!

P.S. The solo is partly what I could see in videos, partly my understanding of it. So the notes are accurate,
but the strings it's played on may not be.

[All Simon Neil Parts]

[Intro] 
Envelope Filter/Auto-Wah, Reverb

e|-----------------------------------------------|
B|-----------------------------------------------|
G|-----------------------------------------------|
D|-(9)------------------(9)----------------------|
A|--x---9------9---------x---9------9------9--12\|
E|--0---0--12--0--12-----0---0--12--0--12--------|


[Verse 1 + Pre-Chorus 1] 
Envelope Filter/Auto-Wah

e|-----------------------------------------------|
B|-----------------------------------------------|
G|-----------------------------------------------|
D|-(9)------------------(9)----------------------|
A|--x---9------9---------x---9------9------9--12-|
E|--0---0--12--0--12-----0---0--12--0--12--------|

e|-----------------------------------------------|
B|-----------------------------------------------|
G|-----------------------------------------------|
D|-----------------------------------------------|
A|--x---7------7---------x---7------7------9--12-|
E|-10---0--10--0--10----10---0--10--0--10--------|

e|-----------------------------------------------|
B|-----------------------------------------------|
G|-----------------------------------------------|
D|-(9)------------------(9)----------------------|
A|--x---9------9---------x---9------9------9--12-|
E|--0---0--12--0--12-----0---0--12--0--12--------|

e|------------------------------------------------|------|
B|------------------------------------------------|------|
G|------------------------------------------------|------|
D|------------------------------------------------|-9----|
A|--x---7------7---------x---7------7------9--12--|-x-x7-|
E|-10---0--10--0--10----10---0--10--0--10---------|-0----|


[Chorus] 
Double time (Simon uses thumb for root note, but doesn't matter if you use your index)
Overdriven

e|--------------------------------|
B|--8-------3------10------12-----|
G|--9-------4------11------12-----|
D|-10-x16---5-x16--12-x16--13-x16-|
A|--x-------x-------x-------x-----|
E|--8-------3------10------12-----|

e|--------------------------------|
B|--8-------3------10-------7-----|
G|--9-------4------11-------8-----|
D|-10-x16---5-x16--12-x16---9-x16-| x2
A|--x-------x-------x-------x-----|
E|--8-------3------10-------7-----|

[Post-Chorus/Pre-Verse] 
Envelope Filter/Auto-Wah

e|-----------------------------------------------|
B|-----------------------------------------------|
G|-----------------------------------------------|
D|-(9)------------------(9)----------------------|
A|--x---9------9---------x---9------9------9--12\|
E|--0---0--12--0--12-----0---0--12--0--12--0-----|

[Verse 2 + Pre-Chorus 2] 
Envelope Filter/Auto-Wah

e|-----------------------------------------------|
B|-----------------------------------------------|
G|-----------------------------------------------|
D|-(9)------------------(9)----------------------|
A|--x---9------9---------x---9------9------9--12-|
E|--0---0--12--0--12-----0---0--12--0--12--------|

e|-----------------------------------------------|
B|-----------------------------------------------|
G|-----------------------------------------------|
D|-----------------------------------------------|
A|--x---7------7---------x---7------7------9--12-|
E|-10---0--10--0--10----10---0--10--0--10--------|

e|-----------------------------------------------|
B|-----------------------------------------------|
G|-----------------------------------------------|
D|-(9)------------------(9)----------------------|
A|--x---9------9---------x---9------9------9--12-|
E|--0------12-----12-----0------12-----12--------|

e|-----------------------------------------------|------------------|
B|-----------------------------------------------|------------------|
G|-----------------------------------------------|------------------|
D|-----------------------------------------------|(9)--(999)--------|
A|--x---7------7---------x---7------7------9--12-|-x-x5-xxx---------|
E|-10---0--10--0--10----10---0--10--0--10--------|-0----000-10-12\=-|

[Chorus] 
Double time (Simon uses thumb for root note, but doesn't matter if you use your index)
Overdriven

e|--------------------------------|
B|--8-------3------10------12-----|
G|--9-------4------11------12-----|
D|-10-x16---5-x16--12-x16--13-x16-|
A|--x-------x-------x-------x-----|
E|--8-------3------10------12-----|

e|--------------------------------|
B|--8-------3------10-------7-----|
G|--9-------4------11-------8-----|
D|-10-x16---5-x16--12-x16---9-x16-| x2
A|--x-------x-------x-------x-----|
E|--8-------3------10-------7-----|

[Solo] 
Fuzz + Overdrive, Reverb, Slapback Delay, Octaver (low in mix)
End of solo is taken over by Mike Vennart underneath the Final Chorus

e|-------------------------------------------------------------------------------|
B|-------------------------------------------------------------------------------|
G|-------------------------------------------------------------------------------|
D|------9h10-9----------9---9----9/12--(7)---------------------------------------|
A|-------------10\-------10---10--------0---9h10-9\-5--(7)-----9-10-9--10h9------|
E|--8---------------3-----------------------------------0---12--------------12---|

e|--------------------------------------------------------------------------------|
B|--------------------------------------------------------------------------------|
G|--------------------------------------------------------------------------------|
D|------9h10-9----------9---9----9/12--(7)----------------------------------------|
A|-------------10\-------10---10--------0---9h10-9\-5/--7-9--7-9--7-9--7-9b10-9-7-|
E|--8---------------3-----------------------------------0-x--0-x--0-x--0----------| 

[Final Chorus] 
Double time (Changes to extended power chords, besides one or two chords)
Overdriven

e|----------3---------------------|
B|--5-------3-------7-------8-----|
G|--5-------4-------7-------9-----|
D|--5-x16---5-x16---7-x16---x-x16-|
A|--3-------5-------5-------7-----|
E|----------3---------------------|

e|----------3---------------------|
B|--5-------3-------7-------7-----|
G|--5-------4-------7-------8-----|
D|--5-x16---5-x16---7-x16---9-x16-| 
A|--3-------5-------5-------x-----|
E|----------3---------------7-----|

[Outro] 
Envelope Filter/Auto-Wah, Reverb
e|-----------------------------------------------|
B|-----------------------------------------------|
G|-----------------------------------------------|
D|-(9)------------------(9)----------------------|
A|--x---9------9---------x---9------9------9--12-|
E|--0---0--12--0--12-----0---0--12--0--12--------|



************************************

| (n)  Ghost note
| x    Dead note
| \    Slide down
| h    Hammer-on
| /    Slide up
| b    Bend
   

************************************

            
            
Suggest correction
Creating personal tab
Creating personal tab
You can edit any tab online and save it as your Personal.

You can edit, replace or remove any tab part or add personal notes – all changes will be seen only by you.

Personal tabs can be accessed anytime from any device, even offline.
Learn more »
Give kudos to tab author, rate the tab!
1 2 3 4 5
comments
print report bad tab
guest
You may want to rate the tab now too:
select rating
Wanna post a correction for this tab? Suggest correction