Oops, an error
Loading. Please wait.

Folding Stars tab

version 2
version 2

Whole song

Interactive

16,169 views 60 this week
2 commentsread comments
1 2 3 4 5
x 12
add to favorites
×
Save as Personal and add changes to this tab that will be seen only by you. Learn more ›
×
You can save this tab as Personal to edit and correct it or add notes. All changes will be seen only by you. Learn more »
launch autoscroll
font size
0
reset
how to read this tab
guitar tuner
edit
Autoscroll
slow
fast
+/-
esc
set tempo
stop
Biffy Clyro - Folding Stars
Puzzle

Drop D Tuning

Listen to the Song along with it, and it should make sense.

Intro Pt I
e|-----17-------17\--|
B|-15-------15-------|
G|---14--14---14-----|
D|-------------------|
A|-------------------|
D|-------------------|


Intro Pt II
e|-----17-------17---|
B|-15-------15-------|
G|---14--14---14--14-| x4
D|-------------------|
A|-------------------|
D|-------------------|

Gtr.2
e|-----------0--0-|
B|-33333333--3--3-|
G|-22222220--0--0-| x3
D|-xxxxxx00--0--0-|
A|-444455x5-5-55--|
D|-------45-5-55--|

Last time:
e|--------0~-|
B|-33333333~-|
G|-22222220~-|
D|-xxxxxx00~-|
A|-444455x5~-|
D|-------45~-|

_______________________________

Verse

Gtr.2
e|---0--------0----0-|
B|-3-3-33-----3----3-|
G|-2-2-22-2-0-0-00-0-| x4
D|-x---xx-0-0---00---|
A|-4---55-x-5---55---|
D|--------4-5---55---|

_______________________________

Pre Chorus

Gtr.1
e|-----17-------17---|
B|-15-------15-------|
G|---14--14---14--14-| x2
D|-------------------|
A|-------------------|
D|-------------------|

Gtr.2
e|---------------------|
B|---------------------|
G|---------------------|x2
D|-2222/4444/555/77777-|
A|-2222/4444/555/77777-|  (Gradually release the palm mute the 2nd time)
D|-2222/4444/555/77777-|
PM--------------------|

_______________________________

Chorus

e|-22222222-00000000-00000000-22222222-|
B|-33333333-33333330-22222222-33333333-|
G|-22222222-22222222-22222222-55555555-|
D|-00000000-22222222-22222222-55555555-|
A|----------00000000-00000000-22222222-|
D|-------------------------------------|

e|-------------------22222222-00000000-|
B|-------------------33333333-22222222-|
G|-------------------22222222-22222222-|
D|-55555555-22222222-00000000-22222222-|
A|-55555555-22222222----------00000000-|
D|-55555555-22222222-------------------|

________________________________

Bridge

e|-----17-------17------17-----|
B|-15-------15------15------15~|
G|---14--14---14--14--14--14---|
D|-----------------------------|
A|-----------------------------|
D|-----------------------------|

Gtr.2
e|-----------0--0--------0~-|
B|-33333333--3--3-33333333~-|
G|-22222220--0--0-22222220~-| 
D|-xxxxxx00--0--0-xxxxxx00~-|
A|-444455x5-5-55--444455x5~-|
D|-------45-5-55--------45~-|

________________________________

Verse.2 

Gtr.1 Fills  (Listen to Song for timing)
e|-0-----|-0---0-2-|-0-----|
B|---3---|---3-----|---3---|
G|-----2-|---------|-----2-|
D|-------|---------|-------|
A|-------|---------|-------|
D|-------|---------|-------|

Gtr.2
e|---0--------0----0-|
B|-3-3-33-----3----3-|
G|-2-2-22-2-0-0-00-0-| x4
D|-x---xx-0-0---00---|
A|-4---55-x-5---55---|
D|--------4-5---55---|

________________________________

Pre Chorus

________________________________

Chorus
                                            _
e|-22222222-00000000-00000000-22222222-|     \
B|-33333333-33333330-22222222-33333333-|      \
G|-22222222-22222222-22222222-55555555-|       \
D|-00000000-22222222-22222222-55555555-|        \
A|----------00000000-00000000-22222222-|         \
D|-------------------------------------|
                                                   x2
e|-------------------22222222-00000000-|          
B|-------------------33333333-22222222-|
G|-------------------22222222-22222222-|         /
D|-55555555-22222222-00000000-22222222-|        /
A|-55555555-22222222----------00000000-|       /
D|-55555555-22222222-------------------|      /
                                            _/

_________________________________

"Mid 8" (Again, listen to the song for the timing, easily make sense then)

Gtr.1 Fills
Havent worked these out yet, will post them when i get round to it,
open to suggestions meanwhile.

Gtr.2
e|--------0~~-|
B|-33333333~~-|
G|-22222220~~-|
D|-xxxxxx00~~-|  x4
A|-444455x5~~-|
D|-------45~~-|

__________________________________

Pre Chorus 

Gtr.1
e|-----17------17---|
B|-15------15-------|
G|---14--14--14--14-| x4
D|------------------|
A|------------------|
D|------------------|

Gtr.2
e|---------------------|
B|---------------------|
G|---------------------|x4
D|-2222/4444/555/77777-|
A|-2222/4444/555/77777-|  (Gradually release the palm mute the 4th time)
D|-2222/4444/555/77777-|
PM--------------------|

__________________________________

Chorus

__________________________________

Outro
Gtr.1
e|-----17------17------17------17------17------17------17-----|
B|-15------15------15------15------15------15------15------15~|
G|---14--14--14--14--14--14--14--14--14--14--14--14--14--14---|
D|------------------------------------------------------------|
A|------------------------------------------------------------|
D|------------------------------------------------------------|

Gtr.2
e|-----------0--0-|
B|-33333333--3--3-|
G|-22222220--0--0-| x3
D|-xxxxxx00--0--0-|
A|-444455x5-5-55--|
D|-------45-5-55--|

Last time:
e|--------0~-|
B|-33333333~-|
G|-22222220~-|
D|-xxxxxx00~-|
A|-444555x5~-|
D|-------45~-|
          
e|----|
B|----|
G|-2~-|
D|-0~-| Vol. Swell
A|-0~-|
D|-0~-| 


Fill
e|-----------------|
B|-3h5p3---5b-3~---|
G|-------2---------|
D|-----------------|
A|-----------------|
D|-----------------|

Ace biffy song, Mon the biff!!
Made this tab by watching the music vid and a live version on youtube.

Cheers, Alex B.
Legendary_Inc

            
            
Suggest correction
Creating personal tab
Creating personal tab
You can edit any tab online and save it as your Personal.

You can edit, replace or remove any tab part or add personal notes – all changes will be seen only by you.

Personal tabs can be accessed anytime from any device, even offline.
Learn more »
comments
print report bad tab
2 comments total.
0 reply
CalFoo 70 Sep 14, 2007 01:24 PM

Awesome, sounds spot on.

+2 reply
Legendary_Inc 143 Jan 17, 2008 09:03 AM

Oops, the chorus shoud be like
this

e|-22222222-00000000-00000000-22222222-|
B|-33333333-33333333-22222222-33333333-|
G|-22222222-22222222-2222222
2-44444444-|
D|-00000000-22222222-22222222-44444444-|
A|----------00000000-00000000-22222222-|
D|--------------------
-----------------|

guest
You may want to rate the tab now too:
select rating
Wanna post a correction for this tab? Suggest correction