Oops, an error
Loading. Please wait.

Get Fucked Stud bass

version 1
version 1

Whole song

Interactive

3,312 views 3 this week
no commentswrite comment
1 2 3 4 5
x 3
add to favorites
×
Save as Personal and add changes to this tab that will be seen only by you. Learn more ›
×
You can save this tab as Personal to edit and correct it or add notes. All changes will be seen only by you. Learn more »
launch autoscroll
font size
0
reset
guitar tuner
edit
Autoscroll
slow
fast
+/-
esc
set tempo
stop
Author
Intro  x2
G|---------------------------------------------------|
D|---------------------------------------------------|
A|2222----2222----2222-----22--5-55-55555-0-00-00000-|
D|---------------------------------------------------|

Verse  x3
G|-------------------------------|
D|---4--0-5/7--4------2------7---|
A|2----------------0-----0-5---0-|
D|-------------------------------|

Pre chorus  x2
G|------------------------------------------------|
D|5-555-5-555-5-555-5-555-------------------------|
A|------------------------5-555-5-555-0-000-0-000-|
D|------------------------------------------------|

Chorus VERSION 1  x1(i think this first chorus he just lets the notes ring out)
(Get fucked stud...)
G|------------------------------------------------------|
D|------------------------------------------------------|
A|5~----------2~----------5~----------2~----------2~----|
D|------5~----------5~----------5~----------5~----------|

Verse  x2 (xxxxx - palm mute)
G|--------------------------------------------|
D|--------------------------------------------|
A|2222-55555-2222-55555-----------------------|
D|----------------------7777-77777-7777-77777-|
      (xxxxx)    (xxxxx)    (xxxxx)    (xxxxx)

Pre Chorus  x2
G|----------------------------------------|
D|5-55-55-5-5-55-55-5---------------------|
A|--------------------5-55-55-5-0-00-00-0-|
D|----------------------------------------|

Chorus VERSION 2  x1
(The skyline is burning red so we'll all go down.....)
G|------------------------------------------------|
D|5-5-5-7-7-7-------------------------------------|
A|------------------------------------------------|
D|------------9-99-99-9-9-0-00-00-0-0-3-33-33-3-3-|

G|------------------------------------------------|
D|------------------------7-77-77-7-7-5-55-55-5-5-|
A|------------------------------------------------|
D|2-2-2-4-4-4-9-99-99-9-9-------------------------|

G|------------------------------------------------|
D|------------------------------------------------|
A|------------------------------------------------|
D|5-5-5-7-7-7-9-9-9-9-9-9-0-0-0-0-0-0-5-5-5-5-5-5-|

G|------------------------------------------------|
D|------------------------7-7-7-7-7-7-5-5-5-5-5-5-|
A|------------------------------------------------|
D|2-2-2-4-4-4-9-9-9-9-9-9-------------------------|

Interlude  x1
G|------------------------------------------------------------------------|
D|------------------------------------------------------------------------|
A|------------------------2-2-2-2-2-2-2-2-2-2-2-2-------------------------|
D|5-5-5-5-5-5-5-5-5-5-5-5-------------------------5-5-5-5-5-5-5-5-5-5-5-5-|

G|------------------------------------------------------------------------|
D|------------------------5-5-5-5-5-5-5-5-5-5-5-5-9-9-9-9-9-9-9-9-9-9-9-9-|
A|2-2-2-2-2-2-0-0-0-0-0-0-------------------------------------------------|
D|------------------------------------------------------------------------|

G|------------------------------------------------|
D|5-5-5-5-5-5-5-5-5-5-5-5-9-9-9-9-9-9-7-7-7-7-7-7-|
A|------------------------------------------------|
D|------------------------------------------------|

Chorus VERSION 1  x1
(Get FUCKED! stud...)
G|------------------------------------------------|
D|------------------------------------------------|
A|------------2-222-2-222-------------5-555-5-555-|
D|5-555-5-555-------------5-555-5-555-------------|

G|------------------------------------|
D|------------------------------------|
A|------------2-222-2-222-------------|
D|5-555-5-555-------------5-555-5-555-|

Chorus VERSION 2  x1
(Skyline is burning red so we'll all go down)
G|------------------------------------------------|
D|5-5-5-7-7-7-------------------------------------|
A|------------------------------------------------|
D|------------9-99-99-9-9-0-00-00-0-0-3-33-33-3-3-|

G|------------------------------------------------|
D|------------------------7-77-77-7-7-------------|
A|------------------------------------5-55-55-5-5-|
D|2-2-2-4-4-4-9-99-99-9-9-------------------------|

G|------------------------------------------------|
D|------------------------------------------------|
A|------------------------------------------------|
D|5-5-5-7-7-7-9-9-9-9-9-9-0-0-0-0-0-0-5-5-5-5-5-5-|

G|------------------------------------------------|
D|------------------------------------------------|
A|------------------------------------------------|
D|2-2-2-4-4-4-9-9-9-9-9-9-0-0-0-0-0-0-5-5-5-5-5-5-|

Outro  x1
G|--------------------------|
D|--------------------------|
A|22-2----22-2----22-2---22-|
D|--------------------------|

And there you have it, i reckon its pretty close to perfect. The timing 
and strumming of some bits might be a bit out but they still fit.
Great song i reckon the best off the album. Please rate and comment 
or correct.  Sorry bout the length.

            
            
Suggest correction
Creating personal tab
Creating personal tab
You can edit any tab online and save it as your Personal.

You can edit, replace or remove any tab part or add personal notes – all changes will be seen only by you.

Personal tabs can be accessed anytime from any device, even offline.
Learn more »
Give kudos to tab author, rate the tab!
1 2 3 4 5
comments
print report bad tab
guest
You may want to rate the tab now too:
select rating
Wanna post a correction for this tab? Suggest correction