Oops, an error
Loading. Please wait.

Many Of Horror bass

version 3
version 3

Whole song

Interactive

28,619 views 24 this week
no commentswrite comment
1 2 3 4 5
x 16
add to favorites
×
Save as Personal and add changes to this tab that will be seen only by you. Learn more ›
×
You can save this tab as Personal to edit and correct it or add notes. All changes will be seen only by you. Learn more »
launch autoscroll
font size
0
reset
guitar tuner
backing track
0:00
0:00
edit
Autoscroll
slow
fast
+/-
esc
set tempo
stop
Author
Difficulty
intermediate
Tuning: Standard (E,A,D,G)

[Verse 1]
("You say I love you boy") 
(Guitar Main Riff Plays 5 Times Bass Comes In on 6th)
G|-------------------|
D|-------------------|
A|-------------------|
E|--6----8/9--9------|

[Verse 2]
("Cause when my back is turned...")
G|-----------------------------------------------------|
D|-----------------------------------------------------|
A|-----------------------------------------------------|
E|---9--9--9--9--9--9--9--9--9--9----1----2/4--4-------|

G|-----------------------------------------------------|
D|-----------------------------------------------------|
A|-----------------------------------------------------|
E|---4--4--4--4--4--4--4--4--4--4----11----9/6--6------|

G|-----------------------------------------------------|
D|-----------------------------------------------------|
A|-----------------------------------------------------|
E|---6--6--6--6--6--6--6--6--6--6----11----9/4--4------|

G|-----------------------------------------------------|
D|-----------------------------------------------------|
A|-----------------------------------------------------|
E|---4--4--4--4--4--4--4--4--4--4----6----8/9--2-------|

[Pre-Chorus]
("I still belive...")
G|-----------------------------------------------------|
D|-----------------------------------------------------|
A|-----------------------------------------------------|
E|---2--2--2--2--2--2--2--2--2--2----1----1/6--2-------|

G|---------------------------------------------------------|
D|---------------------------------------------------------|
A|---------------------------------------------------------|
E|---2--2--2--2--2--2--2--2--2--4/----4--4--4--4--4--4--4--|

[Chorus]
("When We Collide...")
G|---------------------------------------------------|
D|---------------------------------------------------|
A|---------------------------------------------------|
E|---9--9--9--9--9--9--9--9--9--9--9--9--9--9--9--9--|

G|---------------------------------------------------|
D|---------------------------------------------------|
A|---------------------------------------------------|
E|---6--6--6--6--6--6--6--6--2--2--2--2--2--2--2--2--|

G|---------------------------------------------------|
D|---------------------------------------------------|
A|---------------------------------------------------|
E|---9--9--9--9--9--9--9--9--9--9--9--9--9--9--9--9--|

G|---------------------------------------------------|
D|---------------------------------------------------|
A|---------------------------------------------------|
E|---6--6--6--6--6--6--6--6--2--2--2--2--2/----------|

[Verse 3]
("Sitting In A Wishing hole...")
G|-------------------|
D|-------------------|
A|-------------------|
E|--6----8/9--9------|

G|-----------------------------------------------------|
D|-----------------------------------------------------|
A|-----------------------------------------------------|
E|---9--9--9--9--9--9--9--9--9--9----1----2/4--4-------|

G|-----------------------------------------------------|
D|-----------------------------------------------------|
A|-----------------------------------------------------|
E|---4--4--4--4--4--4--4--4--4--4----11----9/6--6------|

G|-----------------------------------------------------|
D|-----------------------------------------------------|
A|-----------------------------------------------------|
E|---6--6--6--6--6--6--6--6--6--6----11----9/4--4------|

G|-----------------------------------------------------|
D|-----------------------------------------------------|
A|-----------------------------------------------------|
E|---4--4--4--4--4--4--4--4--4--4----6----8/9--2-------|

[Pre-Chorus]
G|-----------------------------------------------------|
D|-----------------------------------------------------|
A|-----------------------------------------------------|
E|---2--2--2--2--2--2--2--2--2--2----1----1/6--2-------|

G|---------------------------------------------------------|
D|---------------------------------------------------------|
A|---------------------------------------------------------|
E|---2--2--2--2--2--2--2--2--2--4/----4--4--4--4--4--4--4--|

[Chorus 2] 
(Slightly Longer Time Between Each Note Compared To Previous Chorus)
G|-----------------------------------------------------------------------------------|
D|-----------------------------------------------------------------------------------|
A|-----------------------------------------------------------------------------------|
E|---9----9----9----9----9----9----9----9----9----9----9----9----9----9----9----9----|

G|-----------------------------------------------------------------------------------|
D|-----------------------------------------------------------------------------------|
A|-----------------------------------------------------------------------------------|
E|---6----6----6----6----6----6----6----6----2----2----2----2----2----2----2----2----|

G|-----------------------------------------------------------------------------------|
D|-----------------------------------------------------------------------------------|
A|-----------------------------------------------------------------------------------|
E|---9----9----9----9----9----9----9----9----9----9----9----9----9----9----9----9----|

G|-----------------------------------------------------------------------|
D|-----------------------------------------------------------------------|
A|-----------------------------------------------------------------------|
E|---6----6----6----6----6----6----6----6----2----2----2--2--2--2--------|

[Bridge]
("Cause You said love...")
G|--------------------------------------|
D|--------------------------------------|
A|--------------------------------------|
E|--4--4--4--4--4--4--4--6-------2-----4|

G|-------------------------------------------------------------------|
D|-------------------------------------------------------------------|
A|-------------------------------------------------------------------|
E|--4--4--4--4--4--4---6----8/9--9-------9--9--9--9--9--9--9--9--9--9|

G|--------------------------------------------------------|
D|--------------------------------------------------------|
A|--------------------------------------------------------|
E|--1---2/4--4---4--4--4--4--4--4--4--4--4--4/11----9--6/-|

G|----------------------------------------|
D|----------------------------------------|
A|----------------------------------------|
E|--6--6--6--6--6--6--6--6--6--6--11/9--4-|

G|-------------------------------------------------------------------|
D|-------------------------------------------------------------------|
A|-------------------------------------------------------------------|
E|--4--4--4--4--4--4---6----8/9--9-------9--9--9--9--9--9--9--9--9--9|

G|--------------------------------------------------------|
D|--------------------------------------------------------|
A|--------------------------------------------------------|
E|--1---2/4--4---4--4--4--4--4--4--4--4--4--4/11----9--6/-|

G|----------------------------------------|
D|----------------------------------------|
A|----------------------------------------|
E|--6--6--6--6--6--6--6--6--6--6--11/9--4-|

G|---------------------------------|
D|---------------------------------|
A|---------------------------------|
E|--4--4--4--4--4--4---6----8/9--2-|

[Pre-Chorus/Outro]
G|-----------------------------------------------------|
D|-----------------------------------------------------|
A|-----------------------------------------------------|
E|---2--2--2--2--2--2--2--2--2--2----1----1/6--2-------|

G|---------------------------------------------------------|
D|---------------------------------------------------------|
A|---------------------------------------------------------|
E|---2--2--2--2--2--2--2--2--2--4/----4--4--4--4--4--4--4--|

[Outro]
G|-----------------------------------------------------------------------------------|
D|-----------------------------------------------------------------------------------|
A|-----------------------------------------------------------------------------------|
E|---9----9----9----9----9----9----9----9----9----9----9----9----9----9----9----9----|

G|-----------------------------------------------|
D|-----------------------------------------------|
A|-----------------------------------------------|
E|---6----6----6----6----6----6----6----6----2~--|

            
            
Suggest correction
Creating personal tab
Creating personal tab
You can edit any tab online and save it as your Personal.

You can edit, replace or remove any tab part or add personal notes – all changes will be seen only by you.

Personal tabs can be accessed anytime from any device, even offline.
Learn more »
comments
print report bad tab
guest
You may want to rate the tab now too:
select rating
Wanna post a correction for this tab? Suggest correction