Oops, an error
Loading. Please wait.

Many Of Horror tab

version 9
version 9
31,434 views 48 this week
2 commentsread comments
1 2 3 4 5
x 10
add to favorites
×
Save as Personal and add changes to this tab that will be seen only by you. Learn more ›
×
You can save this tab as Personal to edit and correct it or add notes. All changes will be seen only by you. Learn more »
launch autoscroll
font size
0
reset
how to read this tab
guitar tuner
backing track
0:00
0:00
edit
Autoscroll
slow
fast
+/-
esc
set tempo
stop
Half-step Down Tuning:
Many of Horror by Biffy Clyro

Playing what the lead is Playing here, I suppose it's a bit of a combo of lead and 
chords! You'll have to do your own timings!
Sorry for the mess; this is my first real tab!

[NOTE] if after / or \ a note is not contained within brackets then play it again!
Also when you get to the part with the Open 0 on the D string, it's optional 
whether to play that or not, I choose not to but I included it anyway, I just mute it!

[Verse]
eb|-----------------------------------------------------------------|
Bb|-----------------------------------------------------------------|
Gb|-7-9-11---11-----11-----11-\2-4-6--6---6---6-/12-11-7--7---7---7-|
Db|-----------------------------------------------------------------|
Ab|-----------------------------------------------------------------|
Eb|-7-9-10-10--10-10--10-10---\2-3-5-5-5-5-5-5--/12-10-7-7-7-7-7-7--|

eb|------------------------------------------|
Bb|------------------------------------------|
Gb|-/12-11-6--6---6---6----------------------| x2
Db|------------------------------------------| 
Ab|------------------------------------------|
Eb|-/12-10-5-5-5-5-5-5-----------------------|

[Pre-Chorus]
eb|-----------------------------------------------------------------|
Bb|-----------------------------------------------------------------|
Gb|-7/(9)/(11)\4--4---4---4-2/(7)-7\(4)-4--4---4-6--6---6-----------|
Db|-----------------------------------------------------------------|
Ab|-----------------------------------------------------------------|
Eb|-7/(9)/(10)\3-3-3-3-3-3--2/(7)-7\(3)-3-3-3-3--5-5-5-5------------|

[Chorus]
eb|--------------------------------------------------------|
Bb|--------------------------------------------------------|
Gb|-12-11-9-11------11-----11-12-11-9-7-4----4---4---------| x2
Db|--------------------------------------------------------|
Ab|--------------------------------------------------------|
Eb|-12-10-9-10-10-10--10-10---12-10-9-7-3-3-3-3-3----------|

[Verse 2]
eb|-----------------------------------------------------------------|
Bb|-----------------------------------------------------------------|
Gb|-7-9-11---11-----11-----11-\2-4-6--6---6---6-/12-11-7--7---7---7-|
Db|-----------------------------------------------------------------|
Ab|-----------------------------------------------------------------|
Eb|-7-9-10-10--10-10--10-10---\2-3-5-5-5-5-5-5--/12-10-7-7-7-7-7-7--|

eb|------------------------------------------|
Bb|------------------------------------------|
Gb|-/12-11-6--6---6---6----------------------|  [Only once this time!]
Db|------------------------------------------| 
Ab|------------------------------------------|
Eb|-/12-10-5-5-5-5-5-5-----------------------|

[Pre-Chorus]
eb|-----------------------------------------------------------------|
Bb|-----------------------------------------------------------------|
Gb|-7/(9)/(11)\4--4---4---4-2/(7)-7\(4)-4--4---4-6--6---6-----------|
Db|-----------------------------------------------------------------|
Ab|-----------------------------------------------------------------|
Eb|-7/(9)/(10)\3-3-3-3-3-3--2/(7)-7\(3)-3-3-3-3--5-5-5-5------------|

[Chorus] (start using a pick and strumming here for the remainder!)
eb|--------------------------------------------------------|
Bb|--------------------------------------------------------|
Gb|-12-11-9-11------11-----11-12-11-9-7-4----4---4---------| x2
Db|-0--0--0-0-------0------0--0--0--0-0-0----0---0---------|
Ab|-x--x--x-x-------x------x--x--x--x-x-x----x---x---------|
Eb|-12-10-9-10-10-10--10-10---12-10-9-7-3-3-3-3-3----------|

[Bridge]
eb|--------------------------------------------------------------|
Bb|--------------------------------------------------------------|
Gb|-6---6---6-7--7-4--4-6--6---6-7-9-11---11-----11-----11-------|
Db|-0---0---0-0--0-0--0-0--0---0-0-0-0----0------0------0--------|
Ab|-x---x---x-x--x-x--x-x--x---x-x-x-x----x------x------x--------|
Eb|-5-5--5-5--7-7--3-3--5-5-5-5--7-9-10-10--10-10--10-10---------|

eb|----------------------------------------------------------------------|
Bb|----------------------------------------------------------------------|
Gb|-2-4-6--6---6---6-12-11-7--7---7---7-12-11-6--6---6---6---------------|
Db|-0-0-0--0---0---0-0--0--0--0---0---0-0--0--0--0---0---0---------------|
Ab|-x-x-x--x---x---x-x--x--x--x---x---x-x--x--x--x---x---x---------------|
Eb|-2-3-5-5-5-5-5-5--12-10-7-7-7-7-7-7--12-10-5-5-5-5-5-5----------------|

[Verse 3]
eb|------------------------------------------------------------------|
Bb|------------------------------------------------------------------|
Gb|-7-9-11---11-----11-----11--2-4-6--6---6---6-12-11-7--7---7---7---|
Db|-0-0-0----0------0------0---0-0-0--0---0---0-0--0--0--0---0---0---|
Ab|-x-x-x----x------x------x---x-x-x--x---x---x-x--x--x--x---x---x---|
Eb|-7-9-10-10--10-10--10-10----2-3-5-5-5-5-5-5--12-10-7-7-7-7-7-7----|

eb|------------------------------------------------|
Bb|------------------------------------------------|
Gb|-12-11-6--6---6---6-----------------------------|  [Only once this time!]
Db|-0--0--0--0---0---0-----------------------------| 
Ab|-x--x--x--x---x---x-----------------------------|
Eb|-12-10-5-5-5-5-5-5------------------------------|

[Pre-Chorus]
eb|-----------------------------------------------------------------|
Bb|-----------------------------------------------------------------|
Gb|-7/(9)/(11)\4--4---4---4-2/(7)-7\(4)-4--4---4-6--6---6-----------|
Db|-0/(0)/(0-)\0--0---0---0-0/(0)-0\(0)-0--0---0-0--0---0-----------|
Ab|-x/(x)/(x-)\x--x---x---x-x/(x)-x\(x)-x--x---x-x--x---x-----------|
Eb|-7/(9)/(10)\3-3-3-3-3-3--2/(7)-7\(3)-3-3-3-3--5-5-5-5------------|

[Chorus]
eb|--------------------------------------------------------|
Bb|--------------------------------------------------------|
Gb|-12-11-9-11------11-----11-12-11-9-7-4----4---4---------| x2
Db|-0--0--0-0-------0------0--0--0--0-0-0----0---0---------|
Ab|-x--x--x-x-------x------x--x--x--x-x-x----x---x---------|
Eb|-12-10-9-10-10-10--10-10---12-10-9-7-3-3-3-3-3----------|

FIN! 
Looks a bit complicated! Sorry, Guys =)

************************************

| x  Dead note
| b  Bend
| /  Slide up
| \  Slide down

************************************

            
            
Suggest correction
Creating personal tab
Creating personal tab
You can edit any tab online and save it as your Personal.

You can edit, replace or remove any tab part or add personal notes – all changes will be seen only by you.

Personal tabs can be accessed anytime from any device, even offline.
Learn more »
comments
print report bad tab
2 comments total.
0 reply
Tomozaurus 230 Sep 07, 2013 02:53 AM

Weird chords, but sounds perfectly accurate, so nicely done.

0 reply
VivaEmptiness 20 Feb 07, 2014 07:50 AM

I think this is the best one.

guest
You may want to rate the tab now too:
select rating
Wanna post a correction for this tab? Suggest correction