Oops, an error
Loading. Please wait.
We have an official Mountains tab made by UG professional guitarists. Check out the tab »
×
14,832 views 12 this week
3 commentsread comments
1 2 3 4 5
x 3
add to favorites
×
Save as Personal and add changes to this tab that will be seen only by you. Learn more ›
×
You can save this tab as Personal to edit and correct it or add notes. All changes will be seen only by you. Learn more »
launch autoscroll
font size
0
reset
guitar tuner
backing track
0:00
0:00
edit
Autoscroll
slow
fast
+/-
esc
set tempo
stop
Author
Difficulty
No bass on intro

Verse x2

The 6s and 2s should be very staccato, and it’s 1 and 2 not 12 in the passing notes

G----------------------------------|
D----------------------------------|
A----------------------------------|
E-6-6-6-6-6-6-0012-2-2-2-2-2-2-999-|

Bridge

Play this the same as the verse

G----------------------------------|
D----------------------------------|
A----------------------------------|
E-4-4-4-4-4-4-111-6-6-6-6-6-6-9989-|

G---------------------------------|
D---------------------------------|
A---------------------------------|
E-4-4-4-4-4-4-111-6-6-6-6-6-6-888-|

Chorus

G------------------------------------|
D------------------------------------|
A------------------------------------|
E-/9/9--8--/9/9--8--6----6----8-8-8--|

G-----------------------------|
D-----------------------------|
A-----------------------------|
E-/9/9--8--/9/9--8--6----6----|


G---------------------------------------------------------|
D---------------------------------------------------------|
A-------------------------------------------------4-4-4-4-|
E-4-4-4-4-4-4-4-4-6-6-6-6-6-6-6-6-2-2-2-2-2-2-2-2---------|

G---------------------------------------------------------------|
D---------------------------------------------------------------|
A-------------------------------------------------4-4-4-4-4-4-4-|
E-4-4-4-4-4-4-4-4-6-6-6-6-6-6-6-6-2-2-2-2-2-2-2-2---------------|

G---------------------------------------------------------|
D---------------------------------------------------------|
A-------------------------------------------------4-4-4-4-|
E-4-4-4-4-4-4-4-4-6-6-6-6-6-6-6-6-2-2-2-2-2-2-2-2---------|

G-----------------------------------------------------------------|
D-----------------------------------------------------------------|
A-------------------------------------------------4-4-4-4-4-4-4-4-|
E-4-4-4-4-4-4-4-4-6-6-6-6-6-6-6-6-2-2-2-2-2-2-2-2-----------------|

Then do verse and chorus again

Bridge

G---------------------------------|
D---------------------------------|
A---------------------------------|
E-6-6-6-6-4-4-4-4-9-9-9-9-9-9-9-9-|

G----------------------------------|
D----------------------------------|
A----------------------------------|
E-6-6-6-6-4-4-4-4-2-2-2-2-2-2-2-2--|

G---------------------------------------------------------------------------|
D---------------------------------------------------------------------------|
A---------------------------------------------------------------------------|
E-6-6-6-6-4-4-4-4-9-9-9-9-9-9-9-9-11-11-11-11-11-11-11-11-14-14-14-14-14-14-|


Outro

G-----------------------------------------------------------------|
D-----------------------------------------------------------------|
A-----------------------------------------------------------------|
E-6-6-6-6-4-4-4-4-9-9-9-9-9-9-9-9-2-2-2-2-2-2-2-2-9-9-9-9-9-9-9-9-|


G--------------------------------------------------------------------------|
D--------------------------------------------------------------------------|
A--------------------------------------------------------------------------|
E-4-4-4-4-4-4-4-4-9-9-9-9-9-9-9-9-2-2-2-2-2-2-2-2-11-11-11-11-11-11-11-11--|

G-----------------------------------------------------------------|
D-----------------------------------------------------------------|
A-----------------------------------------------------------------|
E-6-6-6-6-4-4-4-4-9-9-9-9-9-9-9-9-2-2-2-2-2-2-2-2-9-9-9-9-9-9-9-9-|


G------------------------------------------------------------------------|
D------------------------------------------------------------------------|
A------------------------------------------------------------------------|
E-4-4-4-4-4-4-4-4-9-9-9-9-9-9-9-9-2-2-2-2-2-2-2-2-2-2-2-2-2-2-2-2-888----|

G-----------------------------------------------------------------|
D-----------------------------------------------------------------|
A-----------------------------------------------------------------|
E-/9/9--8--/9/9--8--6----6---/9/9-9-9-9-9-9-9-9-9-9-9-9-9-9-9-9-9-|

(pause)

G-----------------|
D-----------------|
A-----------------|
E-9-9-9-9-9-9-9-9-|

            
            
Suggest correction
Creating personal tab
Creating personal tab
You can edit any tab online and save it as your Personal.

You can edit, replace or remove any tab part or add personal notes – all changes will be seen only by you.

Personal tabs can be accessed anytime from any device, even offline.
Learn more »
Give kudos to tab author, rate the tab!
1 2 3 4 5
comments
print report bad tab
3 comments total.
-1 reply
Felkara 596 Nov 10, 2008 05:53 AM

It's in the wrong tuning - this song is play in drop-C#. You should have fixed this before it was approved by some imbecile.

0 reply
TheMansonMan 121 Aug 31, 2009 03:23 PM

it is in drop Db (same as drop C#)
but this tab will work for those who cant be bothered to detune
so yeh, its all good (Y)

0 reply
1pins6pins 10 Oct 06, 2017 12:32 PM

got for standard tuning thanks

guest
You may want to rate the tab now too:
select rating
Wanna post a correction for this tab? Suggest correction