Oops, an error
Loading. Please wait.
We have an official Mountains tab made by UG professional guitarists. Check out the tab »
×

Mountains tab

version 1
version 1

Whole song

  • Best Chord Voicings and pretty much what Simon plays live.
  • Live acoustic version from In:Demand Scotland.

Interactive

101,312 views 30 this week
6 commentsread comments
1 2 3 4 5
x 11
add to favorites
×
Save as Personal and add changes to this tab that will be seen only by you. Learn more ›
×
You can save this tab as Personal to edit and correct it or add notes. All changes will be seen only by you. Learn more »
launch autoscroll
font size
0
reset
how to read this tab
guitar tuner
backing track
0:00
0:00
edit
Autoscroll
slow
fast
+/-
esc
set tempo
stop
Artist: Biffy Clyro
Song: Mountains
Tuning: Drop D + half step down aka - Db,Ab,Db,Gb,Bb,Eb
Tabbed by: David H

[Intro Piano] 
(play around using these chords)

   BbMin  Fmin DbMaj
Eb|-2-----5-----5----|
Bb|-3-----7-----7----|
Gb|-4-----6-----7----|
Db|-4-----4-----7----|
Ab|-2-----------5----|
Db|------------------|  x3

   GbMaj Bbmin DbMaj
Eb|-3-----2-----5----|
Bb|-3-----3-----7----|
Gb|-4-----4-----7----|
Db|-5-----4-----7----|
Ab|-5-----2-----5----|
Db|------------------|  

   BbMin  Fmin DbMaj
Eb|-2-----5-----5----|
Bb|-3-----7-----7----|
Gb|-4-----6-----7----|
Db|-4-----4-----7----|
Ab|-2-----------5----|
Db|------------------|  

   GbMaj
Eb|-3-----|
Bb|-3-----|
Gb|-4-----|
Db|-5-----|
Ab|-5-----|
Db|-------|

[Verse]
Eb|-------------------------------------|
Bb|-------------------------------------|
Gb|-4-4-4-4-4-4-----------------7-7-7---|
Db|-4-4-4-4-4-4-0-0-0-5-5-5-5-5-5-7-7-7-|
Ab|-2-2-2-2-2-2-0-0-0-5-5-5-5-5-5-5-5-5-|
Db|-------------0-0-0-5-5-5-5-5-5-0-0-0-| x2

Eb|-----------------------------------------|
Bb|-----------------------------------------|
Gb|-2-2-2-2-2-2-2-2-2-2-4-4-4-4-4-4-4-7-7-7-|
Db|-2-2-2-2-2-2-2-2-2-2-4-4-4-4-4-4-4-7-7-7-|
Ab|-0-0-0-0-0-0-0-0-0-0-2-2-2-2-2-2-2-5-5-5-|
Db|---------------------------------0-0-0---|

Eb|-----------------------------------------------|
Bb|-----------------------------------------------|
Gb|-----------------------------------------------|
Db|-7-7-7-7-7-7-7-7-7-7-9-9-9-9-9-9-1-1-1-1-1-1---|
Ab|-7-7-7-7-7-7-7-7-7-7-9-9-9-9-9-9-1-1-1-1-1-1---|
Db|-7-7-7-7-7-7-7-7-7-7-9-9-9-9-9-9-1-1-1-1-1-1---| (note these are 11s not 1s)

[Chorus]
Eb|-------------------------------|
Bb|-------------------------------|
Gb|-------------------------------|
Db|-0--12--0-12-12-12-12-11-11-11-|
Ab|-0--12--0-12-12-12-12-11-11-11-|
Db|-0--12--0-12-12-12-12-11-11-11-| x2

Eb|--------------------------|
Bb|--------------------------|
Gb|--------------------------|
Db|-9--9--9-9-9-9-9-11-11-11-|
Ab|-9--9--9-9-9-9-9-11-11-11-|
Db|-9--9--9-9-9-9-9-11-11-11-|

Eb|-------------------------------|
Bb|-------------------------------|
Gb|-------------------------------|
Db|-0--12--0-12-12-12-12-11-11-11-|
Ab|-0--12--0-12-12-12-12-11-11-11-|
Db|-0--12--0-12-12-12-12-11-11-11-| x2

Eb|------------------------|
Bb|------------------------|
Gb|------------------------|
Db|-9--9--9-9-9-9-9--9-9-9-|
Ab|-9--9--9-9-9-9-9--9-9-9-|
Db|-9--9--9-9-9-9-9--9-9-9-|

[Bridge]
Eb|---------------------------------------------------------------------|
Bb|---------------------------------------------------------------------|
Gb|----------------------------7777----------------------------77777777-|
Db|-77777777-99999999-55555555-7777-77777777-99999999-55555555-77777777-|
Ab|-77777777-99999999-55555555-5555-77777777-99999999-55555555-55555555-|
Db|-77777777-99999999-55555555------77777777-99999999-55555555----------|x2
(555xxx may be replaced by x101212xx)

[Verse]
Eb|-------------------------------------|
Bb|-------------------------------------|
Gb|-4-4-4-4-4-4-----------------7-7-7---|
Db|-4-4-4-4-4-4-0-0-0-5-5-5-5-5-5-7-7-7-|
Ab|-2-2-2-2-2-2-0-0-0-5-5-5-5-5-5-5-5-5-|
Db|-------------0-0-0-5-5-5-5-5-5-0-0-0-| x2

Eb|-----------------------------------------|
Bb|-----------------------------------------|
Gb|-2-2-2-2-2-2-2-2-2-2-4-4-4-4-4-4-4-7-7-7-|
Db|-2-2-2-2-2-2-2-2-2-2-4-4-4-4-4-4-4-7-7-7-|
Ab|-0-0-0-0-0-0-0-0-0-0-2-2-2-2-2-2-2-5-5-5-|
Db|---------------------------------0-0-0---|

Eb|-----------------------------------------------|
Bb|-----------------------------------------------|
Gb|-----------------------------------------------|
Db|-7-7-7-7-7-7-7-7-7-7-9-9-9-9-9-9-1-1-1-1-1-1---|
Ab|-7-7-7-7-7-7-7-7-7-7-9-9-9-9-9-9-1-1-1-1-1-1---|
Db|-7-7-7-7-7-7-7-7-7-7-9-9-9-9-9-9-1-1-1-1-1-1---| (note these are 11s not 1s)
Chorus 2
Eb|-------------------------------|
Bb|-------------------------------|
Gb|-------------------------------|
Db|-0--12--0-12-12-12-12-11-11-11-|
Ab|-0--12--0-12-12-12-12-11-11-11-|
Db|-0--12--0-12-12-12-12-11-11-11-| x2

Eb|--------------------------|
Bb|--------------------------|
Gb|--------------------------|
Db|-9--9--9-9-9-9-9-11-11-11-|
Ab|-9--9--9-9-9-9-9-11-11-11-|
Db|-9--9--9-9-9-9-9-11-11-11-|

Eb|-------------------------------|
Bb|-------------------------------|
Gb|-------------------------------|
Db|-0--12--0-12-12-12-12-11-11-11-|
Ab|-0--12--0-12-12-12-12-11-11-11-|
Db|-0--12--0-12-12-12-12-11-11-11-| x2

Repeat Bridge

Then
Eb|---------------------------------------|
Bb|---------------------------------------|
Gb|-4444-2222----------4444-2222----------|
Db|-4444-2222-00000000-4444-2222-55555555-|
Ab|-2222-0000-00000000-2222-0000-55555555-|
Db|-----------00000000-----------55555555-|

Eb|--------------------------------------|
Bb|--------------------------------------|
Gb|-4444-2222----------------------------|
Db|-4444-2222-00000000-22222222-55555555-|
Ab|-2222-0000-00000000-22222222-55555555-|
Db|-----------00000000-22222222-55555555-|

Eb|--------------------------------------------------------------------------|
Bb|--------------------------------------------------------------------------|
Gb|-4444-2222----------------------------22222222----------------------------|
Db|-4444-2222-00000000-55555555-00000000-22222222-00000000-55555555-22222222-|
Ab|-2222-0000-00000000-55555555-00000000-00000000-00000000-55555555-22222222-|
Db|-----------00000000-55555555-00000000----------00000000-55555555-22222222-|

Eb|-------------------------------------------------------------------------|
Bb|-------------------------------------------------------------------------|
Gb|-4444-2222----------------------------22222222-----------------------666-|
Db|-4444-2222-00000000-55555555-00000000-22222222-00000000-555555555555-666-|
Ab|-2222-0000-00000000-55555555-00000000-00000000-00000000-555555555555-444-|
Db|-----------00000000-55555555-00000000----------00000000-555555555555-----|

Eb|-------------------------------|
Bb|-------------------------------|
Gb|-------------------------------|
Db|-0--12--0-12-12-12-12-11-11-11-|
Ab|-0--12--0-12-12-12-12-11-11-11-|
Db|-0--12--0-12-12-12-12-11-11-11-| x2

Eb|-----------------------|
Bb|-----------------------|
Gb|-----------------------|
Db|-9--9--9-9-9-9-9-9-9-9-|
Ab|-9--9--9-9-9-9-9-9-9-9-|
Db|-9--9--9-9-9-9-9-9-9-9-|

Eb|--------------------------------------|
Bb|-3-3-3-3-3-3-3-3-3-3-3-----3-3-3-3-3--|
Gb|-2-2-2-2-2-2-2-2-2-2-2-----2-2-2-2-2--|
Db|-0-0-0-0-0-0-0-0-0-0-0-----0-0-0-0-0--|
Ab|-0-0-0-0-0-0-0-0-0-0-0-----0-0-0-0-0--|
Db|-0-0-0-0-0-0-0-0-0-0-0-----0-0-0-0-0--|


************************************

| b  Bend 

************************************

            
            
Suggest correction
Creating personal tab
Creating personal tab
You can edit any tab online and save it as your Personal.

You can edit, replace or remove any tab part or add personal notes – all changes will be seen only by you.

Personal tabs can be accessed anytime from any device, even offline.
Learn more »
comments
print report bad tab
6 comments total. Showing first comments. show 1 bad comment
-2 reply
j-boy199 140 Aug 26, 2008 10:35 AM

Are you sure it's not in drop C?

I'm in drop C playing along to the song and it sounds right to me.

+6 reply
xPOTTSIEx 31 Aug 31, 2008 08:25 AM

Drop C[sharp] and Drop D[flat] are the same tunings, just different names for them

guest
You may want to rate the tab now too:
select rating
Wanna post a correction for this tab? Suggest correction