Oops, an error
Loading. Please wait.

On A Bang tab

version 3
version 3

Whole song

622 views 1 this week
no commentswrite comment
1 2 3 4 5
1 last vote to show rating
add to favorites
×
Save as Personal and add changes to this tab that will be seen only by you. Learn more ›
×
You can save this tab as Personal to edit and correct it or add notes. All changes will be seen only by you. Learn more »
launch autoscroll
font size
0
reset
how to read this tab
guitar tuner
edit
Autoscroll
slow
fast
+/-
esc
set tempo
stop
-------------------------------------------------------------------------------
                             On A Bang - Biffy Clyro
-------------------------------------------------------------------------------

I used the following YouTube video of Biffy's live performance of On a Bang to create this tab. 
Please let me know if there are any mistakes.  

https://www.youtube.com/watch?v=bsi9rmU44_M

TUNING: DROP C


[Verse]

Oceans of red..
d|---------------------------------------------------------------------|
A|---------------------------------------------------------------------|
F|---------------------------------------------------------------------|
C|----------------5---7\-----------------------------------------------|
G|--7--3--5\---0--3---5\---7--3--5\-----8---10---7\----10--11--12\-----|
C|--7--3--5\---0-----------7--3--5\-----8---10---7\----10--11--12\-----|

You only fuck computers
d|--------------------------------------------------------|
A|--------------------------------------------------------|
F|----2----2----2----2------------------------------------| 
C|----0----0----0----0------------------------------------|
G|----0----0----0----0------------------------------------|
C|----0----0----0----0------------------------------------|


Blame the science...            Just don't blame mother nature

D|-----------------------------------------------------------------------------------|
A|-x-----1----------------------x-------3--------------------------------------------|
F|-2-----0----------7-----------2-------0-----7--------------------------------------|
C|-2-----0-----5----7-----------2-------0-----7----5\--------------------------------|
G|-0-----3\----3\---5\----------0-------x-----5----3\--------------------------------|
C|-------x-----x------------------------5\-------------------------------------------|


we're only ones and zeroes
d|------|
A|------|
F|--9^--|
C|------|
G|--7^--|
C|------|


Now you know better...
d|----------------------------------|
A|--10---10--10--10--10----10--10---|
F|--7----7---7---7---7-----7---7----|
C|--0-------------------------------| x2
G|--0----10--8-----------------10\--|
C|--0------------10--8-----10-------|


I gave my heart...
d|-------------------------------------------------------|
A|-------------------------------------------------------|
F|-------------------------------------------------------|
C|----------------------------5---7\------5--7\----------|
G|--7--3--5----7--3--5----0---3---5\---0--3--5\----------|
C|--7--3--5----7--3--5----0------------0-----------------|

Time doesn't heal..
d|-------------------------------------------------------|
A|-------------------------------------------------------|
F|-------------------------------------------------------|
C|-------------------------------------------------------|
G|--7--3--5----8--10--7---8--10--7-----------------------|
C|--7--3--5----8--10--7---8--10--7-----------------------|

Well there's your shitty future, you motherfucker!!
d|-------------------------------------------------------|
A|-------------------------------------------------------|
F|-----------------2-------------------2-----------------|
C|-----------------0-------------------0-----------------|
G|--10--11--12-----0------10--11--12---0-----------------|
C|--10--11--12-----0------10--11--12---0-----------------|

6 is silence...
D|-----------------------------------------------------------------------------------|
A|-x-----1----------------------x-------3--------------------------------------------|
F|-2-----0----------7-----------2-------0-----7--------------------------------------|
C|-2-----0-----5----7-----------2-------0-----7----5---------------------------------|
G|-0-----3\----3\---5\----------0-------x-----5----3\--------------------------------|
C|-------x-----x------------------------5\-------------------------------------------|


[Chorus]

d|----------------------------------------|
A|--10/---17---10--10--10--10----10--10---|
F|--7/----14---7---7---7---7-----7---7----|
C|--0-----0-------------------------------| x3
G|--0-----0----10--8-----------------10\--|
C|--0-----0------------10--8-----10-------|


[Final Chorus]

                         Do betterrrrrugh
d|---------------------------------------|
A|--10---10--10--10--10----10--10---10---|
F|--7----7---7---7---7-----7---7----7----|
C|--0-------------------------------0----| x1
G|--0----10--8-----------------10---0----|
C|--0------------10--8-----10-------0----|

d|---------------------------------------|
A|---------------------------------------|
F|--3------------------------------------|
C|--1------------------------------------|
G|--1------------------------------------|
C|--1------------------------------------| 


************************************

| x  Dead note
| /  Slide up
| \  Slide down
|*   Harmonics
|^   Bend up

************************************

            
            
Suggest correction
Creating personal tab
Creating personal tab
You can edit any tab online and save it as your Personal.

You can edit, replace or remove any tab part or add personal notes – all changes will be seen only by you.

Personal tabs can be accessed anytime from any device, even offline.
Learn more »
Give kudos to tab author, rate the tab!
1 2 3 4 5
comments
print report bad tab
guest
You may want to rate the tab now too:
select rating
Wanna post a correction for this tab? Suggest correction