Oops, an error
Loading. Please wait.

Only One Word Comes To Mind bass

version 1
version 1

Whole song

Interactive

1,229 views 1 this week
1 commentread comment
1 2 3 4 5
1 last vote to show rating
add to favorites
×
Save as Personal and add changes to this tab that will be seen only by you. Learn more ›
×
You can save this tab as Personal to edit and correct it or add notes. All changes will be seen only by you. Learn more »
launch autoscroll
font size
0
reset
guitar tuner
edit
Autoscroll
slow
fast
+/-
esc
set tempo
stop
Author
Biffy Clyro - Only one word comes to mind
Infinity Land
D A D G

Intro
0:08
--12*-------|
-----12*----|
--------12*-| *harmonics, every fourth time.
------------|

0:44
-------------------------------------------------------------------------|
-------------------------------------------------------------------------|
--10-10-10-10-10-10-9-9-9-6-6-6-2-2-2-----2-2-2-----2-2-2-----2-2-2------|
-------------------------------------0-0-0-----0-0-0-----0-0-0-----0-0-0-|

--------------------------------------------------|
--------------------------------------------------|
--10-10-10-----10-10-10---10-10-10-----10-10-10---|
----------0-0-0--------0-0-0---0-0-0--------0-0-0-|

Verse
------------------------------------------|
------------------------------------------|
-2-2-2-----2-2-2-----2-2-2-----2-2-2------|
------0-0-0-----0-0-0-----0-0-0-----0-0-0-|

--------------------------------------------------|
--------------------------------------------------|
--10-10-10-----10-10-10---10-10-10-----10-10-10---|
----------0-0-0--------0-0-0---0-0-0--------0-0-0-|

Pre Chorus
--------------------------------|
--------------------------------|
--10-10-10-10-10-10-9-9-9-6-6-6-|
--------------------------------|

Chorus
------------------------------------------------------|
------------------------------------------------------|
-------0-0-0-----0-0-0--10-10-10-10-10-10-9-9-9-6-6-6-|
--0-0-0-----0-0-0-------------------------------------| x2

Verse

Interlude
-----------------------|
-----------------------|
--0~-----2~-----3~-----|
-----------------------|

----------------|
----------------|
--0~-----2~-----|
----------------|

Chorus

Chorus end
--------------------------------------------|
--------------------------------------------|
----0----0----10-10-10-10-10-10-9-9-9-6-6-6-|
--0----0------------------------------------|

-----------------------------------------------|
-----------------------------------------------|
----0----0----10-10-10-10-10-10-9-9-9-12-12-12-|
--0----0---------------------------------------|

Bridge
---------------------|
---------------------|
--2------0-----2---5-|
------0-----5--------|

-------------------------------------------------|
-------------------------------------------------|
--0-0-0-0--0--------------2-2-2-2--2-------------|
-------------5-5-5-5--4-0-------------0-0-0-0--0-|

---------------------------------------------------------|
---------------------------------------------------------|
--0-0-0-0--0----------------6^----2-2-2-2--2-------------|
-------------5-5-5-5--5-4-0--0--5-------------0-0-0-0--0-|

--------------------|
--------------------|
--0-0-0-0--0--------|
-------------5-4-0--|

Fill
-----------------|
-----------------|
--6^-------------|
------0---6^---0-| x2

Outro
------------------------------|
------------------------------|
--6^----------------------3---|
------0---6---0---3-3---0---0-|

--------------------------------|
--------------------------------|
--------------------------------|
--1-0--0-1-0--0-1-0--0-1-3-2--0-|

Enjoy!

            
            
Suggest correction
Creating personal tab
Creating personal tab
You can edit any tab online and save it as your Personal.

You can edit, replace or remove any tab part or add personal notes – all changes will be seen only by you.

Personal tabs can be accessed anytime from any device, even offline.
Learn more »
Give kudos to tab author, rate the tab!
1 2 3 4 5
comments
print report bad tab
1 comment total.
0 reply
The 7.18 71 Jun 23, 2009 05:27 AM

taken right from biffierthanthou :P not that i'm bothered, a fairly decent tab nonetheless

guest
You may want to rate the tab now too:
select rating
Wanna post a correction for this tab? Suggest correction