Oops, an error
Loading. Please wait.

Skylight bass

128 views 3 this week
3 commentsread comments
1 2 3 4 5
3 more votes to show rating
add to favorites
×
Save as Personal and add changes to this tab that will be seen only by you. Learn more ›
×
You can save this tab as Personal to edit and correct it or add notes. All changes will be seen only by you. Learn more »
launch autoscroll
font size
0
reset
guitar tuner
edit
Autoscroll
slow
fast
+/-
esc
set tempo
stop
-------------------------------------------------------------------------------
                             SKYLIGHT - Biffy Clyro
-------------------------------------------------------------------------------
Tabbed by: connorwilson4499
 


Intro and Verse

G|-------------------------|
D|-----------0-------------|  x4
A|-------------------------|
E|-0----3------------------|


Chorus

(We can dream...)
G|-------------------------|
D|------------0------------|  x2
A|--3----------------------|
E|-------0-----------------|


Play verse twice
(I now know...)


Chorus

(We can dream...)
G|--------------------------------------|
D|------------0-------------------------|
A|--3------------------3---------2------|
E|-------0------------------3-----------|


(We're users...)
G|------------------------|
D|------------0-----------|  x2
A|-----------------0------|
E|--0----3----------------|



Bridge (palm-muted)

(Some say love...)
G|---------------------------------------------------------------------------|
D|-----------------------------------------------0-(x16)---------------------|
A|--3-(x16)--------------------3-(x16)--------------------3-(x16)------------|
E|-----------3-(x16)--0-(x16)-----------3-(x16)------------------------------|




Outro

G|---------------------------------------       -----------------------------|
D|-----------0-(x16)--------------------- x4    -----------------------------|
A|--------------------3-(x16)--0-(x16)---       -----------------------------|
E|--0-(x16)------------------------------       --0-(x16)--------------------|


Please rate! Thanks


| /  slide up
| \  slide down
| h  hammer-on
| p  pull-off
| ~  vibrato
| +  harmonic
| x  Mute note
===============================================================================

            
            
Suggest correction
Creating personal tab
Creating personal tab
You can edit any tab online and save it as your Personal.

You can edit, replace or remove any tab part or add personal notes – all changes will be seen only by you.

Personal tabs can be accessed anytime from any device, even offline.
Learn more »
Give kudos to tab author, rate the tab!
1 2 3 4 5
comments
print report bad tab
3 comments total.
+1 reply
Robert2511 321 Aug 01, 2015 05:20 PM

Can you please add timings as I am confused as to where the second line of the bridge is played

0 reply
connorwilson4499 113 Aug 02, 2015 01:49 PM

Thanks that was a mistake and I've put some cues in now

0 reply
Robert2511 321 Aug 02, 2015 05:23 PM

Thank you, I was confused as to what that part was haha

guest
You may want to rate the tab now too:
select rating
Wanna post a correction for this tab? Suggest correction