Oops, an error
Loading. Please wait.
We have an official The Captain tab made by UG professional guitarists. Check out the tab »
×
24,769 views 21 this week
4 commentsread comments
1 2 3 4 5
x 15
add to favorites
×
Save as Personal and add changes to this tab that will be seen only by you. Learn more ›
×
You can save this tab as Personal to edit and correct it or add notes. All changes will be seen only by you. Learn more »
launch autoscroll
font size
0
reset
how to read this tab
guitar tuner
edit
Autoscroll
slow
fast
+/-
esc
set tempo
stop
Tuning - drop C (CACFAD)

[Intro]
D|----------------------------------------------|
A|----------------------------------------------|
F|----------------------------------------------|
C|-15-14-13-12-11-10-0--------------WHOAH!!!----|
G|-15-14-13-12-11-10-0--------------------------|
C|-15-14-13-12-11-10-0--------------------------|

D|---------------------------------------------------------|
A|---------------------------------------------------------|
F|----------------------10---------------------------------|
C|-12-0-0-12-0-0-12-0-0-10--12-0-0-12-0-0-12-0-0-15-14-13--|
G|-12-0-0-12-0-0-12-0-0-8---12-0-0-12-0-0-12-0-0-15-14-13--|
C|-12-0-0-12-0-0-12-0-0-----12-0-0-12-0-0-12-0-0-15-14-13--|

D|--------------------------------------------------------------------------|
A|--------------------------------------------------------------------------|
F|----------------------10--------------------------------------------------|
C|-12-0-0-12-0-0-12-0-0-10--12-0-0-12-0-0-12-0-0-15-14-13-12-11-10----------|
G|-12-0-0-12-0-0-12-0-0-8---12-0-0-12-0-0-12-0-0-15-14-13-12-11-10----------|
C|-12-0-0-12-0-0-12-0-0-----12-0-0-12-0-0-12-0-0-15-14-13-12-11-10----------|

D|------------------------|
A|------------------------|
F|-7----7----12----14\----|
C|-7----7----12----14\----|
G|-5----5----10----12\----|
C|------------------------|

[Pre-Chorus]
D|---14----14----14----15----15----15---14---14----14----12----12----12-----|
A|-15----15----15----15----15----15----15---15---15----15----15----15-------|
F|--------------------------------------------------------------------------|
C|--------------------------------------------------------------------------|
G|--------------------------------------------------------------------------|
C|--------------------------------------------------------------------------|

D|--14---14---14---15---15---15---14---14---14--12--12--12--12--12--12------|
A|15---15---15---15---15---15---15---15---15----15b-15b-15b-15b-15b-15b-----|
F|--------------------------------------------------------------------------|
C|--------------------------------------------------------------------------|
G|--------------------------------------------------------------------------|
C|--------------------------------------------------------------------------|

[Chorus]
D|-------------------------------------|
A|-------------------------------------|
F|---------14-x12--16-x12--14-x12------| (x2)
C|-12-x12--14------16------14----------|
G|-12------12------14------12----------|
C|-12----------------------------------|

[Break]
D|----------------------------------------------------------|
A|----------------------------------------------------------|
F|------------------------------12-x6--14-x6----------------|  (x2)
C|-12-0-0-12-0-0-12-0-0-12-0-0--12-----14-------------------|             
G|-12-0-0-12-0-0-12-0-0-12-0-0--10-----12-------------------|
C|-12-0-0-12-0-0-12-0-0-12-0-0------------------------------|

[Verse]
D|---------------------------------------------------------------|
A|---------------------------------------------------------------|
F|---------------------------------------------------------------|   (x4)
C|---------------------------------------------------------------|
G|------------------------------5-5-5-5-5-5--7-7-7-7-7-7---------|
C|-12-0-0-12-0-0-12-0-0-12-0-0--5-5-5-5-5-5--7-7-7-7-7-7---------|

[Pre-Chorus]
D|---14----14----14----15----15----15---14---14----14----12----12----12-----|
A|-15----15----15----15----15----15----15---15---15----15----15----15-------|
F|--------------------------------------------------------------------------|
C|--------------------------------------------------------------------------|
G|--------------------------------------------------------------------------|
C|--------------------------------------------------------------------------|

D|--14---14---14---15---15---15---14---14---14--12--12--12--12--12--12------|
A|15---15---15---15---15---15---15---15---15----15b-15b-15b-15b-15b-15b-----|
F|--------------------------------------------------------------------------|
C|--------------------------------------------------------------------------|
G|--------------------------------------------------------------------------|
C|--------------------------------------------------------------------------|

[Chorus]
D|-------------------------------------|
A|-------------------------------------|
F|---------14-x12--16-x12--14-x12------| (x2)
C|-12-x12--14------16------14----------|
G|-12------12------14------12----------|
C|-12----------------------------------|

[Break 2/Bridge]
D|---------------------------------------|     (PLAY ONCE FOR THE BREAK AND
A|---------------------------------------|     TWICE FOR THE BRIDGE)
F|---------14-x12--16-x12--14-x6--12-x6--|
C|-12-x12--14------16------14-----12-----|
G|-12------12------14------12-----10-----|
C|-12------------------------------------|

[Outro]
D|--------------------------------------------------------------------------|
A|--------------------------------------------------------------------------|
F|-----------------------10-------------------------------------------------|
C|-12-0-0-12-0-0-12-0-0--10--12-0-0-12-0-0-12-0-0-15-14-13------------------|
G|-12-0-0-12-0-0-12-0-0--8---12-0-0-12-0-0-12-0-0-15-14-13------------------|
C|-12-0-0-12-0-0-12-0-0------12-0-0-12-0-0-12-0-0-15-14-13------------------|

D|--------------------------------------------------------------------------|
A|--------------------------------------------------------------------------|
F|-----------------------10-----------------------------10~-----------------|
C|-12-0-0-12-0-0-12-0-0--10--12-0-0-12-0-0-12---0---0---10~-----------------|
G|-12-0-0-12-0-0-12-0-0--8---12-0-0-12-0-0-12---0---0---8-~-----------------|
C|-12-0-0-12-0-0-12-0-0------12-0-0-12-0-0-12---0---0-----------------------|


************************************

| \  Slide down
| b  Bend
| x  Dead note
| ~  Vibrato

************************************

            
            
Suggest correction
Creating personal tab
Creating personal tab
You can edit any tab online and save it as your Personal.

You can edit, replace or remove any tab part or add personal notes – all changes will be seen only by you.

Personal tabs can be accessed anytime from any device, even offline.
Learn more »
comments
print report bad tab
4 comments total. Showing first comments.
0 reply
zizzyQ 26 Mar 02, 2011 09:52 AM

pretty decent! some parts you made more complicated than Simon Neil actually plays it but apart from that, good job! :D

-1 reply
The guitarists 10 Mar 29, 2013 11:53 AM

This sounds good in an amp setting of
Gain 1 :8
Gain2 : 8
Treble :7
Middle :5
Bass :3
Guitar LP on treble setting:10 sounds decent on mine any way

0 reply
The guitarists 10 Mar 29, 2013 11:56 AM

Sounds good with that amp and guitar settings in drop D

guest
You may want to rate the tab now too:
select rating
Wanna post a correction for this tab? Suggest correction