Oops, an error
Loading. Please wait.

Hurricane Song bass

156 views 1 this week
no commentswrite comment
1 2 3 4 5
2 more votes to show rating
add to favorites
×
Save as Personal and add changes to this tab that will be seen only by you. Learn more ›
×
You can save this tab as Personal to edit and correct it or add notes. All changes will be seen only by you. Learn more »
launch autoscroll
font size
0
reset
guitar tuner
edit
Autoscroll
slow
fast
+/-
esc
set tempo
stop
Artist: Big Baby Ernie
Album: where i live
Song: Hurricane Song
Genre: Soul/R&B
Year: 2004
Record Label: Indie/Self-produced
Bassist: Scott Bennert
Tuning: Standard EADG
Tabbed By: Robb Hassa (Robb987123Bass)
Email: robah91@yahoo.com

Feel free to contact me if you have any questions, or if you think there is a problem 
accuracy (I believe this is 100% correct), or if you want any other songs done by this artist.

Intro:
No bass 0:00-0:43

Riff 1 0:43-0:55
G|--------------------------------|
D|--------------------------------|
A|2---2---2---2---2---2---2---0--1|
E|--------------------------------|

Bass Fill 0:55-1:00
G|----------------4-2--------------|
D|-------------------43-2-2-24-----|
A|2---2---2---2----------4-4--20--1|
E|---------------------------------|

Riff 2 0:55-1:04
G|--------------------------------|
D|--------------------------------|
A|2---------------------------0--1|
E|--------------------------------|

Riff 3 1:04-1:08
G|--------------------------------|
D|--------------------------------|
A|2-2-2-2-2-2-2-2-2-2-2-2-2-2-0--1|
E|--------------------------------|

Riff 4 1:08-1:24
G|--------------------------------|
D|--------------------------------|
A|2-------------------------------|
E|--------------------------------|
 |                                |
G|--------------------------------|
D|--------------------------------|
A|----------------------------0--1|
E|--------------------------------|

Riff 2 1:24-1:40
G|--------------------------------|
D|--------------------------------|
A|2---------------------------0--1|
E|--------------------------------|

Riff 1 1:40-2:24
G|--------------------------------|
D|--------------------------------|
A|2---2---2---2---2---2---2---0--1|
E|--------------------------------|

Riff 5 2:24-2:35
G|--------------------------------|
D|--------------------------------|
A|2---2---2---0--12---2---2---0--1|
E|--------------------------------|

Riff 2 2:35-3:00
G|--------------------------------|
D|--------------------------------|
A|2---------------------------0--1|
E|--------------------------------|

Riff 1 3:00-3:43
G|--------------------------------|
D|--------------------------------|
A|2---2---2---2---2---2---2---0--1|
E|--------------------------------|
At about 3:28, it starts to pick up and go faster.

Riff 1 3:43-4:38
G|--------------------------------|
D|--------------------------------|
A|2---0--12---0--12---0--12---0--1|
E|--------------------------------|

Riff 1 4:38-4:51
G|--------------------------------|
D|--------------------------------|
A|2---0—12---------------------\0-|
E|--------------------------------|
Watch for the timing on this and hold the B until the slide

Legend:
/  slide up
\  slide down
h  hammer-on
p  pull-off
~  vibrato
+  harmonic
x  Mute note

Official website of Big Baby Ernie:
http://www.myspace.com/bigbabyernie

            
            
Suggest correction
Creating personal tab
Creating personal tab
You can edit any tab online and save it as your Personal.

You can edit, replace or remove any tab part or add personal notes – all changes will be seen only by you.

Personal tabs can be accessed anytime from any device, even offline.
Learn more »
Give kudos to tab author, rate the tab!
1 2 3 4 5
comments
print report bad tab
guest
You may want to rate the tab now too:
select rating
Wanna post a correction for this tab? Suggest correction