Oops, an error
Loading. Please wait.

Noise Complaint bass

1,200 views 1 this week
no commentswrite comment
1 2 3 4 5
3 more votes to show rating
add to favorites
×
Save as Personal and add changes to this tab that will be seen only by you. Learn more ›
×
You can save this tab as Personal to edit and correct it or add notes. All changes will be seen only by you. Learn more »
launch autoscroll
font size
0
reset
guitar tuner
edit
Autoscroll
slow
fast
+/-
esc
set tempo
stop
Author
Difficulty
Artist: Big D & The Kids Table
Song: Noise Complaint

Tabbed By : Nick Kauffman

e-mail: xchocodonutsx@hotmail.com

Tuning: Standard


Hello Ska/ Bass Fans! This is my first tab, that being said, I know that there are a 
few errors with this. I think he plays this in drop, but this is tabbed for standard 
tuning. That means the few areas that I can't represent the notes he plays I put in 
one or two of my own. It sounds great and plays well in my opinion. Here is the 
COMPLETE tab for Noise Complaint, solos and fills included. Enjoy!

-Nick

0:00
VERSE
G|---------------------------------------------------------------|
D|---------------------------------------------------------------|
A|-0-0-4-0-0--0-4-0------0-0-4-0-0--0-4-0------------------------|
E|------------------0-2-------------------0-2--------------------| x2

G|---------------------------------------------------------------|
D|-0-0-4-0-0--0-4-0----------------------------------------------|
A|------------------0-2--0-0-4-0-0--0-4-0------------------------|
E|----------------------------------------0-2--------------------|

G|---------------------------------------------------------------|
D|---------------------------------------------------------------|
A|-0-0-4-0-0--0-4-0------0-0-4-0-0--0-4-0------------------------|
E|------------------0-2-------------------0-2--------------------|

G|-----4-7-6--7-6-4-2--2-1---------------------------------------|
D|---6---------------------4-2-2-0-------------------------------|
A|-7--------------------------------4-2--------------------------|
E|---------------------------------------------------------------|

0:15
VERSE
G|---------------------------------------------------------------|
D|---------------------------------------------------------------|
A|-0-0-4-0-0--0-4-0------0-0-4-0-0--0-4-0------------------------|
E|------------------0-2-------------------0-2--------------------| x2

G|---------------------------------------------------------------|
D|-0-0-4-0-0--0-4-0----------------------------------------------|
A|------------------0-2--0-0-4-0-0--0-4-0------------------------|
E|----------------------------------------0-2--------------------|

G|---------------------------------------------------------------|
D|---------------------------------------------------------------|
A|-0-0-4-0-0--0-4-0------0-0-4-0-0--0-4-0------------------------|
E|------------------0-2-------------------0-2--------------------|

G|-----4-7-6--7-6-4-2--2-1---------------------------------------|
D|---6---------------------4-2-2-0-------------------------------|
A|-7--------------------------------4-2--------------------------|
E|---------------------------------------------------------------|

0:29
VERSE
G|---------------------------------------------------------------|
D|---------------------------------------------------------------|
A|-0-0-4-0-0--0-4-0------0-0-4-0-0--0-4-0------------------------|
E|------------------0-2-------------------0-2--------------------| x2

G|---------------------------------------------------------------|
D|-0-0-4-0-0--0-4-0----------------------------------------------|
A|------------------0-2--0-0-4-0-0--0-4-0------------------------|
E|----------------------------------------0-2--------------------|

G|---------------------------------------------------------------|
D|---------------------------------------------------------------|
A|-0-0-4-0-0--0-4-0------0-0-4-0-0--0-4-0------------------------|
E|------------------0-2-------------------0-2--------------------|

G|-----4-7-6--7-6-4-2--2-----------------------------------------|
D|---6-----------------------------------------------------2-2-2-|
A|-7-------------------------------------------------------------|
E|---------------------------------------------------------------|

0:42
HORN SOLO

G|---------------------------------------------------------------|
D|---------------------------------------------------------------|
A|-0-------0-------0-------0-4-----------------------------------|
E|---4-2-0---4-2-0---4-2-0-----2-0-------------------------------|

G|---------------------------------------------------------------|
D|---------2-----------------------------------------------------|
A|-----2-2---4-2-4-0-0-4-4-0-4-2-4-------------------------------|
E|-0-0-----------------------------------------------------------|

G|---------------------------------------------------------------|
D|---6-----------------------------------------------------------|
A|-7---7-6-5-4-3-2-0-----------2-4-------------------------------|
E|-------------------4-2-0-0-4-----------------------------------|

0:58
VERSE
G|---------------------------------------------------------------|
D|---------------------------------------------------------------|
A|-0-0-4-0-0--0-4-0------0-0-4-0-0--0-4-0------------------------|
E|------------------0-2-------------------0-2--------------------| x2

G|---------------------------------------------------------------|
D|-0-0-4-0-0--0-4-0----------------------------------------------|
A|------------------0-2--0-0-4-0-0--0-4-0------------------------|
E|----------------------------------------0-2--------------------|

G|---------------------------------------------------------------|
D|---------------------------------------------------------------|
A|-0-0-4-0-0--0-4-0------0-0-4-0-0--0-4-0------------------------|
E|------------------0-2-------------------0-2--------------------|

G|-----4-7-6--7-6-4-2--2-----------------------------------------|
D|---6-----------------------------------------------------2-2-2-|
A|-7-------------------------------------------------------------|
E|---------------------------------------------------------------|

1:12
VERSE
G|---------------------------------------------------------------|
D|---------------------------------------------------------------|
A|-0-0-4-0-0--0-4-0------0-0-4-0-0--0-4-0------------------------|
E|------------------0-2-------------------0-2--------------------| x2

G|---------------------------------------------------------------|
D|-0-0-4-0-0--0-4-0----------------------------------------------|
A|------------------0-2--0-0-4-0-0--0-4-0------------------------|
E|----------------------------------------0-2--------------------|

G|---------------------------------------------------------------|
D|---------------------------------------------------------------|
A|-0-0-4-0-0--0-4-0------0-0-4-0-0--0-4-0------------------------|
E|------------------0-2-------------------0-2--------------------|

G|-----4-7-6--7-6-4-2--2--2--2-----------------------------------|
D|---6-----------------------------------------------2-2-2-0-----|
A|-7---------------------------------------------------------4---|
E|---------------------------------------------------------------|

1:27
HORN SOLO 2

G|---------------------------------------------------------------|
D|---------------------------------------------------------------|
A|-0-0-4-0-0-------0-4-0-----------------------------------------|
E|-----------4-2-0-------2-0-------------------------------------|

G|---------------------------------------------------------------|
D|---------------------------------------------------------------|
A|------------------0-0-4-4-0-4-5-6------------------------------|
E|--0-0-4-0-0-0-4-0----------------------------------------------|

G|---------------------------------------------------------------|
D|---6-----------------------------------------------------------|
A|-7---7-6-5-4-3-2-0--0--0---------------------------------------|
E|--------------------------0-2-4--------------------------------|

1:41
VERSE
G|---------------------------------------------------------------|
D|---------------------------------------------------------------|
A|-0-0-4-0-0--0-4-0------0-0-4-0-0--0-4-0------------------------|
E|------------------0-2-------------------0-2--------------------| x2

G|---------------------------------------------------------------|
D|-0-0-4-0-0--0-4-0----------------------------------------------|
A|------------------0-2--0-0-4-0-0--0-4-0------------------------|
E|----------------------------------------0-2--------------------|

G|---------------------------------------------------------------|
D|---------------------------------------------------------------|
A|-0-0-4-0-0--0-4-0------0-0-4-0-0--0-4-0------------------------|
E|------------------0-2-------------------0-2--------------------|

G|-----4-7-6--7-6-4-2--2--2--2-----------------------------------|
D|---6-----------------------------------------------2-2-2-0-----|
A|-7---------------------------------------------------------4---|
E|---------------------------------------------------------------|

1:56
GUITAR SOLO
G|---------------------------------------------------------------|
D|---------------------------------------------------------------|
A|-0-0-4-0-0--0-4-0----------------------------------------------|
E|------------------0-2-5\0--------------------------------------|

G|---------------------------------------------------------------|
D|---------------------------------------------------------------|
A|---------4-2-0-2-0---------------------------------------------|
E|-0-0-4-4-------------------------------------------------------|

G|-----4-7-6--7-6-4-2--2-2---------------------------------------|
D|---6-----------------------2-2-0-0-----------------------------|
A|-7---------------------------------4-2-------------------------|
E|---------------------------------------------------------------|

2:10
VERSE
G|---------------------------------------------------------------|
D|---------------------------------------------------------------|
A|-0-0-4-0-0--0-4-0------0-0-4-0-0--0-4-0------------------------|
E|------------------0-2-------------------0-2--------------------| x2

G|---------------------------------------------------------------|
D|-0-0-4-0-0--0-4-0----------------------------------------------|
A|------------------0-2--0-0-4-0-0--0-4-0------------------------|
E|----------------------------------------0-2--------------------|

G|---------------------------------------------------------------|
D|---------------------------------------------------------------|
A|-0-0-4-0-0--0-4-0------0-0-4-0-0--0-4-0------------------------|
E|------------------0-2-------------------0-2--------------------|

G|-----4-7-6--7-6-4-2--2-2---------------------------------------|
D|---6-----------------------------------------------------------|
A|-7---------------------------------------------0-0-0-0-0-0-0-0-|
E|---------------------------------------------------------------|

2:24
VERSE
G|---------------------------------------------------------------|
D|---------------------------------------------------------------|
A|-0-0-4-0-0--0-4-0------0-0-4-0-0--0-4-0------------------------|
E|------------------0-2-------------------0-2--------------------| x2

G|---------------------------------------------------------------|
D|-0-0-4-0-0--0-4-0----------------------------------------------|
A|------------------0-2--0-0-4-0-0--0-4-0------------------------|
E|----------------------------------------0-2--------------------|

G|---------------------------------------------------------------|
D|---------------------------------------------------------------|
A|-0-0-4-0-0--0-4-0------0-0-4-0-0--0-4-0------------------------|
E|------------------0-2-------------------0-2--------------------|

G|-----4-7-6--7-6-4-2--2-2---------------------------------------|
D|---6-----------------------------------------------------2-2-2-|
A|-7-------------------------------------------------------------|
E|---------------------------------------------------------------|

2:39
HORN SOLO 3
G|---------------------------------------------------------------|
D|---------------------------------------------------------------|
A|-0-0-----0-0-----000-------------------------------------------|
E|-----2-2-----2-2-----2-2-0-0-1-2-------------------------------|

G|---------------------------------------------------------------|
D|---------------------------------------------------------------|
A|-----------------0-0-4560-0-4-5-6------------------------------|
E|-0-0-4-4-000-4-4-----------------------------------------------|

G|---------------------------------------------------------------|
D|---6-6---------------------------------------------------------|
A|-7--7-7765-5-4/5\4---------------------------------------------|
E|---------------------------------------------------------------|

G|---------------------------------------------------------------|
D|--------2200---------------------------------------------------|
A|-0-0-0------442------------------------------------------------|
E|---------------------------------------------------------------|

2:53
OUTRO
G|---------------------------------------------------------------|
D|---------------------------------------------------------------|
A|-0-0-4-0-0--0-4-0------0-0-4-0-0--0-4-0------------------------|
E|------------------0-2-------------------0-2--------------------| x2

G|---------------------------------------------------------------|
D|-0-0-4-0-0--0-4-0----------------------------------------------|
A|------------------0-2--0-0-4-0-0--0-4-0------------------------|
E|----------------------------------------0-2--------------------|

G|---------------------------------------------------------------|
D|---------------------------------------------------------------|
A|-0-0-4-0-0--0-4-0------0-0-4-0-0--0-4-0------------------------|
E|------------------0-2-------------------0-2--------------------|

G|-----4-7-6--7-6-4-2------4-7-6--7-6-4-2------------------------|
D|---6-------------------6---------------------------------------|
A|-7-------------------7-----------------------------------------|
E|---------------------------------------------------------------|

G|---------------------------------------------------------------|
D|---------------------------------------------------------------|
A|-------4-5-----------------------------------------------------|
E|-0-4-0---------5-5\0-------------------------------------------|



| /  slide up
| \  slide down
| h  hammer-on
| p  pull-off
| ~  vibrato
| +  harmonic
| x  Mute note

            
            
Suggest correction
Creating personal tab
Creating personal tab
You can edit any tab online and save it as your Personal.

You can edit, replace or remove any tab part or add personal notes – all changes will be seen only by you.

Personal tabs can be accessed anytime from any device, even offline.
Learn more »
Give kudos to tab author, rate the tab!
1 2 3 4 5
comments
print report bad tab
guest
You may want to rate the tab now too:
select rating
Wanna post a correction for this tab? Suggest correction