Oops, an error
Loading. Please wait.

Lost In This Moment bass

230 views 1 this week
no commentswrite comment
1 2 3 4 5
3 more votes to show rating
add to favorites
×
Save as Personal and add changes to this tab that will be seen only by you. Learn more ›
×
You can save this tab as Personal to edit and correct it or add notes. All changes will be seen only by you. Learn more »
launch autoscroll
font size
0
reset
guitar tuner
edit
Autoscroll
slow
fast
+/-
esc
set tempo
stop
-----------------------------------------------------------------------------
                     Lost In This Moment - Big & Rich
-----------------------------------------------------------------------------

Tabbed by: Country Bass
E-mail: aaron.white8@education.nsw.gov.au

Brilliant song by Big & Rich really showing off John Rich's vocals
I'm pretty sure this is how Big & Rich's bassist plays it, Enjoy

Tuning: Standard

Intro

G|---------------------------------|
D|---------------------------------|
A|-------2-----------------2-------|
E|--0--0-----2--2-0---0--0-----2---|

Verse

In verse 1 there's no bass until John sings "all the wonderful..."

G|------------------|
D|------------------|
A|--9---7-----------| x4
E|----------7---7---|

Chorus

G|---------------------------------------------------------------------|
D|---------------------------------------------------------------------|
A|--------2-----------------2-------------2-----------------2----------|
E|--0--0------2--2-0---0--0-----2----0--0-----2--2-0---0--0-----2--2---|

Bridge

G|-------------------------------|
D|-------------------------------|
A|--9---7-----------9---7--------|
E|----------7---7-----------7----|

John then sings the chorus but with only piano and violin accompaniment 

Outro (2nd half of 3rd chorus + Outro)

G|--------------------|
D|--------------------|
A|-------2------------| x6 or until fade out
E|--0--0-----2--2-0---|

Playing Order

Intro
Verse
Chorus
Verse
Chorus
Bridge
Outro (2nd half of 3rd chorus + outro)


| /  slide up
| \  slide down
| h  hammer-on
| p  pull-off
| ~  vibrato
| +  harmonic
| x  Mute note
=============================================================================

            
            
Suggest correction
Creating personal tab
Creating personal tab
You can edit any tab online and save it as your Personal.

You can edit, replace or remove any tab part or add personal notes – all changes will be seen only by you.

Personal tabs can be accessed anytime from any device, even offline.
Learn more »
Give kudos to tab author, rate the tab!
1 2 3 4 5
comments
print report bad tab
guest
You may want to rate the tab now too:
select rating
Wanna post a correction for this tab? Suggest correction