Oops, an error
Loading. Please wait.

Mythological Beauty tab

4,837 views 162 this week
no commentswrite comment
1 2 3 4 5
x 5
add to favorites
×
Save as Personal and add changes to this tab that will be seen only by you. Learn more ›
×
You can save this tab as Personal to edit and correct it or add notes. All changes will be seen only by you. Learn more »
launch autoscroll
font size
0
reset
how to read this tab
guitar tuner
edit
Autoscroll
slow
fast
+/-
esc
set tempo
stop
e|-----------|------------|------------|------------|
B|---------0-|----------0-|----------0-|----------0-|
G|-------3---|-------3----|-------3----|-------3----|
D|----4------|----4-------|----4-------|----4-------|
A|-----------|-2----------|------------|-2----------|
E|--2--------|------------|-4----------|------------|

e|-----------|------------|------------|------------|
B|---------0-|----------0-|----------0-|----------0-|
G|-------3---|-------3----|-------3----|-------3----|
D|----4------|----4-------|----4-------|----4-------|
A|-----------|-2----------|------------|-2----------|
E|--2--------|------------|-4----------|------------|

e|-----------|------------|------------|------------|
B|---------0-|----------0-|----------0-|----------0-|
G|-------3---|-------3----|-------3----|-------3----|
D|----4------|----4-------|----4-------|----4-------|
A|-----------|-2----------|------------|-2----------|
E|--2--------|------------|-4----------|------------|

e|-----------|------------|------------|------------|
B|---------0-|----------0-|----------0-|----------0-|
G|-------3---|-------3----|-------3----|-------3----|
D|----4------|----4-------|----4-------|----4-------|
A|-----------|-2----------|------------|-2----------|
E|--2--------|------------|-4----------|------------|

e|-----------|------------|------------|------------|
B|---------0-|----------0-|----------0-|----------0-|
G|-------3---|-------3----|-------3----|-------3----|
D|----4------|----4-------|----4-------|----4-------|
A|-----------|-2----------|------------|-2----------|
E|--2--------|------------|-4----------|------------|
    You have a mythological beauty

e|-----------|------------|------------|------------|
B|---------0-|----------0-|----------0-|----------0-|
G|-------3---|-------3----|-------3----|-------3----|
D|----4------|----4-------|----4-------|----4-------|
A|-----------|-2----------|------------|-2----------|
E|--2--------|------------|-4----------|------------|
    You have the eye of someone I have seen

e|-----------|------------|------------|------------|
B|---------0-|----------0-|----------0-|----------0-|
G|-------3---|-------3----|-------3----|-------3----|
D|----4------|----4-------|----4-------|----4-------|
A|-----------|-2----------|------------|-2----------|
E|--2--------|------------|-4----------|------------|
    Outside of      ordinary         situations

e|-----------|------------|------------|------------|
B|---------0-|----------0-|----------0-|----------0-|
G|-------3---|-------3----|-------3----|-------3----|
D|----4------|----4-------|----4-------|----4-------|
A|-----------|-2----------|------------|-2----------|
E|--2--------|------------|-4----------|------------|
    Even       outside   of         dreams

e|-----------|------------|------------|------------|
B|---------0-|----------0-|----------0-|----------0-|
G|-------3---|-------3----|-------3----|-------3----|
D|----4------|----4-------|----4-------|----4-------|
A|-----------|-2----------|------------|-2----------|
E|--2--------|------------|-4----------|------------|
     You lie in bed at night and watch the lines of 

e|-----------|------------|------------|------------|
B|---------0-|----------0-|----------0-|----------0-|
G|-------3---|-------3----|-------3----|-------3----|
D|----4------|----4-------|----4-------|----4-------|
A|-----------|-2----------|------------|-2----------|
E|--2--------|------------|-4----------|------------|
     headlights through your screen

e|-----------|------------|------------|------------|
B|---------0-|----------0-|----------0-|----------0-|
G|-------3---|-------3----|-------3----|-------3----|
D|----4------|----4-------|----4-------|----4-------|
A|-----------|-2----------|------------|-2----------|
E|--2--------|------------|-4----------|------------|
    There is a child inside you who’s trying 

e|-----------|------------|------------|------------|
B|---------0-|----------0-|----------0-|----------0-|
G|-------3---|-------3----|-------3----|-------3----|
D|----4------|----4-------|----4-------|----4-------|
A|-----------|-2----------|------------|-2----------|
E|--2--------|------------|-4----------|------------|
     to raise a child in me

[Chorus] 
e|---------------|---------|---------|------------------|
B|-------0-------|-0-------|---------|------------------|
G|---------------|---------|---------|----8-------------|
D|-------4-------|---------|---------|--/8--(8)--8p6----|
A|--6------------|---------|-9-------|----------------9-|
E|-----7---------|---------|---------|------------------|
           If  you   wanna    leave

e|---------------|---------|---------|------------------|
B|-------0-------|-0-------|---------|------------------|
G|---------------|---------|---------|------------------|
D|-------4-------|---------|---------|--8---8-----------|
A|--6------------|---------|---------|----9---9--6------|
E|-----7---------|---------|---------|------------------|
            You just have to say

e|---------------|-----------|-----------|------------|
B|-----------0---|------0----|------0----|------0-----|
G|-------------3-|--------3--|--------3--|--------3---|
D|--------4------|----4------|----4------|----4-------|
A|---------------|-4---------|-6---------|-4----------|
E|------2--------|-----------|-----------|------------|
  You’re all caught up inside

e|---------------|-----------|-----------|------------|
B|-----------0---|------0----|------0----|------0-----|
G|-------------3-|--------3--|--------3--|--------3---|
D|--------4------|----4------|----4------|----4-------|
A|---------------|-4---------|-6---------|-4----------|
E|------2--------|-----------|-----------|------------|
  But you know the way

[Verse 2]
e|-----------|------------|------------|------------|
B|---------0-|----------0-|----------0-|----------0-|
G|-------3---|-------3----|-------3----|-------3----|
D|----4------|----4-------|----4-------|----4-------|
A|-----------|-2----------|------------|-2----------|
E|--2--------|------------|-4----------|------------|
     You cut the flesh   of your   left   thumb

e|-----------|------------|------------|------------|
B|---------0-|----------0-|----------0-|----------0-|
G|-------3---|-------3----|-------3----|-------3----|
D|----4------|----4-------|----4-------|----4-------|
A|-----------|-2----------|------------|-2----------|
E|--2--------|------------|-4----------|------------|
     Using your boyfriend’s knife

e|-----------|------------|------------|------------|
B|---------0-|----------0-|----------0-|----------0-|
G|-------3---|-------3----|-------3----|-------3----|
D|----4------|----4-------|----4-------|----4-------|
A|-----------|-2----------|------------|-2----------|
E|--2--------|------------|-4----------|------------|
       Seventeen,    you    took     his   cum

e|-----------|------------|------------|------------|
B|---------0-|----------0-|----------0-|----------0-|
G|-------3---|-------3----|-------3----|-------3----|
D|----4------|----4-------|----4-------|----4-------|
A|-----------|-2----------|------------|-2----------|
E|--2--------|------------|-4----------|------------|
     And you gave birth to your first life

e|-----------|------------|------------|------------|
B|---------0-|----------0-|----------0-|----------0-|
G|-------3---|-------3----|-------3----|-------3----|
D|----4------|----4-------|----4-------|----4-------|
A|-----------|-2----------|------------|-2----------|
E|--2--------|------------|-4----------|------------|
     You gave Andrew a family who you thought would 

e|-----------|------------|------------|------------|
B|---------0-|----------0-|----------0-|----------0-|
G|-------3---|-------3----|-------3----|-------3----|
D|----4------|----4-------|----4-------|----4-------|
A|-----------|-2----------|------------|-2----------|
E|--2--------|------------|-4----------|------------|
     love and take better care

e|-----------|------------|------------|------------|
B|---------0-|----------0-|----------0-|----------0-|
G|-------3---|-------3----|-------3----|-------3----|
D|----4------|----4-------|----4-------|----4-------|
A|-----------|-2----------|------------|-2----------|
E|--2--------|------------|-4----------|------------|
     I have an   older      brother I     don’t know

e|-----------|------------|------------|------------|
B|---------0-|----------0-|----------0-|----------0-|
G|-------3---|-------3----|-------3----|-------3----|
D|----4------|----4-------|----4-------|----4-------|
A|-----------|-2----------|------------|-2----------|
E|--2--------|------------|-4----------|------------|
     He could be anywhere

[Chorus 2]
e|---------------|---------|---------|------------------|
B|-------0-------|-0-------|---------|------------------|
G|---------------|---------|---------|----8-------------|
D|-------4-------|---------|---------|--/8--(8)--8p6----|
A|--6------------|---------|-9-------|----------------9-|
E|-----7---------|---------|---------|------------------|
           If  you   wanna    leave

e|---------------|---------|---------|------------------|
B|-------0-------|-0-------|---------|------------------|
G|---------------|---------|---------|------------------|
D|-------4-------|---------|---------|--8---8-----------|
A|--6------------|---------|---------|----9---9--6------|
E|-----7---------|---------|---------|------------------|
            You just have to say

e|---------------|-----------|-----------|------------|
B|-----------0---|------0----|------0----|------0-----|
G|-------------3-|--------3--|--------3--|--------3---|
D|--------4------|----4------|----4------|----4-------|
A|---------------|-4---------|-6---------|-4----------|
E|------2--------|-----------|-----------|------------|
  You’re all caught up inside

e|---------------|-----------|-----------|------------|
B|-----------0---|------0----|------0----|------0-----|
G|-------------3-|--------3--|--------3--|--------3---|
D|--------4------|----4------|----4------|----4-------|
A|---------------|-4---------|-6---------|-4----------|
E|------2--------|-----------|-----------|------------|
  But you know the way

e|---------------|-----------|-----------|------------|
B|-----------0---|------0----|------0----|------0-----|
G|-------------3-|--------3--|--------3--|--------3---|
D|--------4------|----4------|----4------|----4-------|
A|---------------|-4---------|-6---------|-4----------|
E|------2--------|-----------|-----------|------------|
  You’re all caught up inside

e|---------------|-----------|-----------|------------|
B|-----------0---|------0----|------0----|------0-----|
G|-------------3-|--------3--|--------3--|--------3---|
D|--------4------|----4------|----4------|----4-------|
A|---------------|-4---------|-6---------|-4----------|
E|------2--------|-----------|-----------|------------|
  But you know the way

[Verse 3]
e|-----------|------------|------------|------------|
B|---------0-|----------0-|----------0-|----------0-|
G|-------3---|-------3----|-------3----|-------3----|
D|----4------|----4-------|----4-------|----4-------|
A|-----------|-2----------|------------|-2----------|
E|--2--------|------------|-4----------|------------|
    Rented a house in Niswah, Minnesota

e|-----------|------------|------------|------------|
B|---------0-|----------0-|----------0-|----------0-|
G|-------3---|-------3----|-------3----|-------3----|
D|----4------|----4-------|----4-------|----4-------|
A|-----------|-2----------|------------|-2----------|
E|--2--------|------------|-4----------|------------|
    Shrapnel and oil cans, rhubarb in the yard

e|-----------|------------|------------|------------|
B|---------0-|----------0-|----------0-|----------0-|
G|-------3---|-------3----|-------3----|-------3----|
D|----4------|----4-------|----4-------|----4-------|
A|-----------|-2----------|------------|-2----------|
E|--2--------|------------|-4----------|------------|
     I built a ladder out of metal pieces

e|-----------|------------|------------|------------|
B|---------0-|----------0-|----------0-|----------0-|
G|-------3---|-------3----|-------3----|-------3----|
D|----4------|----4-------|----4-------|----4-------|
A|-----------|-2----------|------------|-2----------|
E|--2--------|------------|-4----------|------------|
     Father was working hard

e|-----------|------------|------------|------------|
B|---------0-|----------0-|----------0-|----------0-|
G|-------3---|-------3----|-------3----|-------3----|
D|----4------|----4-------|----4-------|----4-------|
A|-----------|-2----------|------------|-2----------|
E|--2--------|------------|-4----------|------------|
    Standing beneath the oak tree by the front door

e|-----------|------------|------------|------------|
B|---------0-|----------0-|----------0-|----------0-|
G|-------3---|-------3----|-------3----|-------3----|
D|----4------|----4-------|----4-------|----4-------|
A|-----------|-2----------|------------|-2----------|
E|--2--------|------------|-4----------|------------|
    You were inside baking bread

e|-----------|------------|------------|------------|
B|---------0-|----------0-|----------0-|----------0-|
G|-------3---|-------3----|-------3----|-------3----|
D|----4------|----4-------|----4-------|----4-------|
A|-----------|-2----------|------------|-2----------|
E|--2--------|------------|-4----------|------------|
    Sister came out and put her arms around me

e|-----------|------------|------------|------------|
B|---------0-|----------0-|----------0-|----------0-|
G|-------3---|-------3----|-------3----|-------3----|
D|----4------|----4-------|----4-------|----4-------|
A|-----------|-2----------|------------|-2----------|
E|--2--------|------------|-4----------|------------|
     Blood gushing from my head

e|-----------|------------|------------|------------|
B|---------0-|----------0-|----------0-|----------0-|
G|-------3---|-------3----|-------3----|-------3----|
D|----4------|----4-------|----4-------|----4-------|
A|-----------|-2----------|------------|-2----------|
E|--2--------|------------|-4----------|------------|
     You held me in the backseat with a dishrag,
 
e|-----------|------------|------------|------------|
B|---------0-|----------0-|----------0-|----------0-|
G|-------3---|-------3----|-------3----|-------3----|
D|----4------|----4-------|----4-------|----4-------|
A|-----------|-2----------|------------|-2----------|
E|--2--------|------------|-4----------|------------|
     soaking up blood with your eyes

e|-----------|------------|------------|------------|
B|---------0-|----------0-|----------0-|----------0-|
G|-------3---|-------3----|-------3----|-------3----|
D|----4------|----4-------|----4-------|----4-------|
A|-----------|-2----------|------------|-2----------|
E|--2--------|------------|-4----------|------------|
     I was just five and you were twenty-seven

e|-----------|------------|------------|------------|
B|---------0-|----------0-|----------0-|----------0-|
G|-------3---|-------3----|-------3----|-------3----|
D|----4------|----4-------|----4-------|----4-------|
A|-----------|-2----------|------------|-2----------|
E|--2--------|------------|-4----------|------------|
     Praying “don’t let my baby die”

[Chorus 3]
e|---------------|---------|---------|------------------|
B|-------0-------|-0-------|---------|------------------|
G|---------------|---------|---------|----8-------------|
D|-------4-------|---------|---------|--/8--(8)--8p6----|
A|--6------------|---------|-9-------|----------------9-|
E|-----7---------|---------|---------|------------------|
           If  you   wanna    leave

e|---------------|---------|---------|------------------|
B|-------0-------|-0-------|---------|------------------|
G|---------------|---------|---------|------------------|
D|-------4-------|---------|---------|--8---8-----------|
A|--6------------|---------|---------|----9---9--6------|
E|-----7---------|---------|---------|------------------|
            You just have to say

e|---------------|-----------|-----------|------------|
B|-----------0---|------0----|------0----|------0-----|
G|-------------3-|--------3--|--------3--|--------3---|
D|--------4------|----4------|----4------|----4-------|
A|---------------|-4---------|-6---------|-4----------|
E|------2--------|-----------|-----------|------------|
  You’re all caught up inside

e|---------------|-----------|-----------|------------|
B|-----------0---|------0----|------0----|------0-----|
G|-------------3-|--------3--|--------3--|--------3---|
D|--------4------|----4------|----4------|----4-------|
A|---------------|-4---------|-6---------|-4----------|
E|------2--------|-----------|-----------|------------|
  But you know the way

e|---------------|-----------|-----------|------------|
B|-----------0---|------0----|------0----|------0-----|
G|-------------3-|--------3--|--------3--|--------3---|
D|--------4------|----4------|----4------|----4-------|
A|---------------|-4---------|-6---------|-4----------|
E|------2--------|-----------|-----------|------------|
  You’re all caught up inside

e|---------------|-----------|-----------|------------|
B|-----------0---|------0----|------0----|------0-----|
G|-------------3-|--------3--|--------3--|--------3---|
D|--------4------|----4------|----4------|----4-------|
A|---------------|-4---------|-6---------|-4----------|
E|------2--------|-----------|-----------|------------|
  But you know the way

[Coda]
e|-----------|-1-------|-1---1---|-1------------|
B|---------0-|---0-----|---0-----|-----0---0----|
G|-------3---|-----1---|-------0-|-------0------|
D|----4------|---------|---------|--------------|
A|-----------|---------|---------|--------------|
E|--4--------|---------|---------|--------------|
                          So much more                            

e|----------0|----------0-|--------0-|---------0--|
B|-------4---|--5----4----|--5---4---|--5----4----|
G|----6------|-----6------|----6-----|-----6------|
D|-----------|------------|----------|------------|
A|-----------|------------|----------|------------|
E|--7--------|------------|----------|------------|
                        to live your life

e|-----------|-1-------|-1---1---|-1------------|
B|---------0-|---0-----|---0-----|-----0---0----|
G|-------3---|-----1---|-------0-|-------0------|
D|----4------|---------|---------|--------------|
A|-----------|---------|---------|--------------|
E|--4--------|---------|---------|--------------|
                        To walk the floor                             

e|----------0|----------0-|--------0-|---------0--|
B|-------4---|--5----4----|--5---4---|--5----4----|
G|----6------|-----6------|----6-----|-----6------|
D|-----------|------------|----------|------------|
A|-----------|------------|----------|------------|
E|--7--------|------------|----------|------------|
                           To say goodnight
                                       
e|-----------|-2--------|-------------|-------|
B|---------0-|---0----2-|-----0-------|--0----|
G|-------3---|-----3----|--3-------3--|-------|
D|----4------|----------|-------4-----|4------|
A|-----------|----------|-------------|-------|  
E|--4--------|----------|-------------|-------|
            Do you leave your light on?

e|-----------|-2--------|-------------|-------|
B|---------0-|---0----2-|-----0-------|--0----|
G|-------3---|-----3----|--3-------3--|-------|
D|----4------|----------|-------4-----|4------|
A|-----------|----------|-------------|-------|  
E|--4--------|----------|-------------|-------|
            Do you leave your light on?

[Outro] (repeat)
e|----------------|-------------|-------------|------------|
B|-----------0----|-------0-----|------0------|------0-----|
G|--------3-----3-|----3-----3--|---3-----3---|---3-----3--|
D|-----------4----|-------4-----|------4------|------4-----|
A|----------------|-4-----------|-6-----------|-4----------|
E|------2---------|-------------|-------------|------------|
  You’re all caught up inside

e|----------------|-------------|-------------|------------|
B|-----------0----|-------0-----|------0------|------0-----|
G|--------3-----3-|----3-----3--|---3-----3---|---3-----3--|
D|-----------4----|-------4-----|------4------|------4-----|
A|----------------|-4-----------|-6-----------|-4----------|
E|------2---------|-------------|-------------|------------|
   But you know the way


***********************************

| /   Slide up
| p   Pull-off


***********************************

            
            
Suggest correction
Creating personal tab
Creating personal tab
You can edit any tab online and save it as your Personal.

You can edit, replace or remove any tab part or add personal notes – all changes will be seen only by you.

Personal tabs can be accessed anytime from any device, even offline.
Learn more »
comments
print report bad tab
guest
You may want to rate the tab now too:
select rating
Wanna post a correction for this tab? Suggest correction