Oops, an error
Loading. Please wait.

Pretty Things tab

2,644 views 150 this week
4 commentsread comments
1 2 3 4 5
x 9
add to favorites
×
Save as Personal and add changes to this tab that will be seen only by you. Learn more ›
×
You can save this tab as Personal to edit and correct it or add notes. All changes will be seen only by you. Learn more »
launch autoscroll
font size
0
reset
how to read this tab
guitar tuner
edit
Autoscroll
slow
fast
+/-
esc
set tempo
stop
[Intro]
e|-------------|-------------|-------------|-------------|
B|-----0-------|-0---0---0---|------0------|-------0-----|
G|---0---0---0-|---0---0---0-|-----5---5---|-----5---5---|
D|---------2---|-------------|---4---4---4-|---4-------4-|
A|-------------|-------------|-7-----------|-7-----------|
E|-0-----------|-------------|-------------|-------------|

e|-------------|-------------|-------------|--------------|
B|---------0---|---------0---|---------0---|---------0----|
G|-----5-------|-----5-------|-----4-------|-----4--------|
D|---4---4---4-|---4---4---4-|---5---5---5-|---5---5----5-|
A|-5-----------|-5-----------|-5-----------|-5------------|
E|-------------|-------------|-------------|--------------|

[Verse 1]
e|-------------|-------------|-------------|--------------|
B|---------0---|---------0---|---------0---|---------0----|
G|-----4-------|-----4-------|-----5-------|-----5--------|
D|---5---5---5-|---5---5---5-|---4---4---4-|---4---4---4--|
A|-7-----------|-7-----------|-7-----------|-7------------|
E|-------------|-------------|-------------|--------------|
                 Matthew, please do not regret    With your 
e|-------------|-------------|-------------|--------------|
B|---------0---|---------0---|---------0---|---------0----|
G|-----5-------|-----5-------|-----4-------|-----4--------|
D|---4---4---4-|---4---4---4-|---5---5---5-|---5---5----5-|
A|-5-----------|-5-----------|-5-----------|-5------------|
E|-------------|-------------|-------------|--------------|
   silk in my hand    And your heart in my sweat    as you're
e|-------------|-------------|-------------|--------------|
B|-------------|-------------|-------------|--------------|
G|-3---3---3---|-3---3---3---|-2---2---2---|-2---2---2----|
D|---5---5---5-|---5---5---5-|---5---5---5-|---5---5---5--|
A|-4-----------|-4-----------|-3-----------|-3------------|
E|-------------|-------------|-------------|--------------|
  Lighting the end of my     last    cigarette    I will 
e|-------------|-------------|-------------|--------------|
B|-------------|-------------|-------------|--------------|
G|-2---2---2---|-0---0---0---|-2---2---2---|-0---0---0----|
D|---0---0---0-|---0---0---0-|---0---0---0-|---0---0---0--|
A|-------------|-------------|-3-----------|-3------------|
E|-3-----------|-3-----------|-------------|--------------|
   warm         you           Warm          you

[Verse 2]
e|-------------|-------------|-------------|--------------|
B|---------0---|---------0---|---------0---|---------0----|
G|-----4-------|-----4-------|-----5-------|-----5--------|
D|---5---5---5-|---5---5---5-|---4---4---4-|---4---4---4--|
A|-7-----------|-7-----------|-7-----------|-7------------|
E|-------------|-------------|-------------|--------------|
                 These things that lonely ones do     Baby
e|-------------|-------------|-------------|--------------|
B|---------0---|---------0---|---------0---|--------------|
G|-----5-------|-----5-------|-----4-------|-----3---3----|
D|---4---4---4-|---4---4---4-|---5---5---5-|---5---5----5-|
A|-5-----------|-5-----------|-5-----------|-4------------|
E|-------------|-------------|-------------|--------------|
   that's what I'm here for    I'll take care and make all your
e|-------------|-------------|-------------|--------------|
B|-------------|-------------|-------------|--------------|
G|-2---2---2---|-2---2---2---|-2---2---2---|-0---0---0----|
D|---5---5---5-|---5---5---5-|---0---0---0-|---0---0---0--|
A|-3-----------|-3-----------|-------------|--------------|
E|-------------|-------------|-3-----------|-3------------|
   Wishes come true     If you want         to 
e|-------------|-------------|
B|-------------|-------------|
G|-2---2---2---|-0---0---0---|
D|---0---0---0-|---0---0---0-|
A|-3-----------|-3-----------|
E|-------------|-------------|
Do you want     to?

[Chorus]
e|-------2-----|-----2-------|-------------|--------------|
B|-----3-----3-|-------3---3-|-----3-------|-------0------|
G|---2-----2---|---2-----2---|---0---0---0-|-----0---0----|
D|-0-----------|-0-----------|---------0---|---0-------0--|
A|-------------|-------------|-------------|-2------------|
E|-------------|-------------|-3-----------|--------------|
               Don't         take me for a fool    There's a
e|-------------|-------------|-------------|-0------------|
B|-------1-----|-1-----1-----|-1-----1-----|--------0-----|
G|-2---2-----2-|-----2-----2-|-----0-----0-|-----0--------|
D|---3----3----|---3-----3---|---2-----0---|---2---2---2--|
A|-------------|-3-----------|-3-----------|-3------------|
E|-1-----------|-------------|-------------|--------------|
  woman inside of me     There's one inside of you, 
e|-------------|-------------|
B|-0-------0---|-------------|
G|-----0-------|-0-------0---|
D|---0---0---0-|-----0-------|
A|-------------|-------------|
E|-3-----------|-------------|
   too

[Verse 3]
e|-------------|-------------|-------------|--------------|
B|---------0---|---------0---|---------0---|---------0----|
G|-----4-------|-----4-------|-----5-------|-----5--------|
D|---5---5---5-|---5---5---5-|---4---4---4-|---4---4---4--|
A|-7-----------|-7-----------|-7-----------|-7------------|
E|-------------|-------------|-------------|--------------|
                 There is an eating in my thighs      Wherein 
e|-------------|-------------|-------------|--------------|
B|---------0---|---------0---|---------0---|---------0----|
G|-----5-------|-----5-------|-----4-------|-----4--------|
D|---4---4---4-|---4---4---4-|---5---5---5-|---5---5----5-|
A|-5-----------|-5-----------|-5-----------|-5------------|
E|-------------|-------------|-------------|--------------|
  thunder and lighting        Men are baptized in their 

e|-------------|-------------|-------------|--------------|
B|-------------|-------------|-------------|--------------|
G|-3---3---3---|-3---3---3---|-2---2---2---|-2---2---2----|
D|---5---5---5-|---5---5---5-|---5---5---5-|---5---5---5--|
A|-4-----------|-4-----------|-3-----------|-3------------|
E|-------------|-------------|-------------|--------------|
  anger and fighting     Their deceit and lies    I've got 
e|-------------|-------------|-------------|--------------|
B|-------------|-------------|-------------|--------------|
G|-2---2---2---|-2---2---2---|-2---2---2---|-0---0---0----|
D|---5---5---5-|---5---5---5-|---5---5---5-|---5---5---5--|
A|-------------|-------------|-3-----------|-3------------|
E|-3-----------|-0-----------|-------------|--------------|
   lips        like           sugar        
e|-------------|-------------|-------------|--------------|
B|-------------|-------------|-------------|--------------|
G|-2---2---2---|-2---2---2---|-2---2---2---|-0---0---0----|
D|---5---5---5-|---5---5---5-|---5---5---5-|---5---5---5--|
A|-------------|-------------|-3-----------|-3------------|
E|-3-----------|-0-----------|-------------|--------------| 
   lips        like           sugar  

[Refrain]      
e|-------------|-------------|-------------|-------------|
B|-----0-------|-----0-------|-------0-----|-------0-----|
G|----4----4---|---------4---|-----5---5---|-----5---5---|
D|---5---5---5-|---5---5---5-|---4-------4-|---4-------4-|
A|-------------|-7-----------|-7-----------|-7-----------|
E|-0-----------|-------------|-------------|-------------|

e|-------------|-------------|-------------|-------------|
B|-------------|-------------|-------0-----|-------0-----|
G|-----5---5---|-----5---5---|-----4---4---|-----4---4---|
D|---4---4---4-|---4---4---4-|---5-------5-|---5-------5-|
A|-5-----------|-5-----------|-5-----------|-5-----------|
E|-------------|-------------|-------------|-------------|

[Verse 4]
e|-------------|-------------|-------------|--------------|
B|---------0---|---------0---|---------0---|---------0----|
G|-----4-------|-----4-------|-----5-------|-----5--------|
D|---5---5---5-|---5---5---5-|---4---4---4-|---4---4---4--|
A|-7-----------|-7-----------|-7-----------|-7------------|
E|-------------|-------------|-------------|--------------|
                 Holding my   wrist to the bed      He was 
e|-------------|-------------|-------------|--------------|
B|---------0---|---------0---|---------0---|---------0----|
G|-----5-------|-----5-------|-----4-------|-----4--------|
D|---4---4---4-|---4---4---4-|---5---5---5-|---5---5----5-|
A|-5-----------|-5-----------|-5-----------|-5------------|
E|-------------|-------------|-------------|--------------|
  thrusting and moaning    And pressing his head     To my 

e|-------------|-------------|-------------|--------------|
B|-------------|-------------|-------------|--------------|
G|-3---3---3---|-3---3---3---|-2---2---2---|-2---2---2----|
D|---5---5---5-|---5---5---5-|---5---5---5-|---5---5---5--|
A|-4-----------|-4-----------|-3-----------|-3------------|
E|-------------|-------------|-------------|--------------|
  temple         His head was a temple      I said you've got 
e|-------------|-------------|-------------|--------------|
B|-------------|-------------|-------------|--------------|
G|-2---2---2---|-2---2---2---|-2---2---2---|-0---0---0----|
D|---5---5---5-|---5---5---5-|---5---5---5-|---5---5---5--|
A|-------------|-------------|-3-----------|-3------------|
E|-3-----------|-0-----------|-------------|--------------|
   lips        like            sugar,            daddy  
e|-------------|-------------|-------------|--------------|
B|-------------|-------------|-------------|--------------|
G|-2---2---2---|-2---2---2---|-2---2---2---|-0---0---0----|
D|---5---5---5-|---5---5---5-|---5---5---5-|---5---5---5--|
A|-------------|-------------|-3-----------|-3------------|
E|-3-----------|-0-----------|-------------|--------------| 
   Lips        like          sugar

[Chorus]
e|-------2-----|-----2-------|-------------|--------------|
B|-----3-----3-|-------3---3-|-----3-------|-------0------|
G|---2-----2---|---2-----2---|---0---0---0-|-----0---0----|
D|-0-----------|-0-----------|---------0---|---0-------0--|
A|-------------|-------------|-------------|-2------------|
E|-------------|-------------|-3-----------|--------------|
               Don't         take me for a fool    There's a
e|-------------|-------------|-------------|-0------------|
B|-------1-----|-1-----1-----|-1-----1-----|--------0-----|
G|-2---2-----2-|-----2-----2-|-----0-----0-|-----0--------|
D|---3----3----|---3-----3---|---2-----0---|---2---2---2--|
A|-------------|-3-----------|-3-----------|-3------------|
E|-1-----------|-------------|-------------|--------------|
  woman inside of me     There's one inside of you, 
e|-------------|-------------|-------------|-------------|
B|-0-------0---|-------------|-------------|---------1---|
G|-----0-------|-0-------0---|-2---2---2---|-2-----------|
D|---0---0---0-|-----0-------|-------3---3-|-------------|
A|-------------|-------------|-------------|-----3-------|
E|-3-----------|-------------|-1-----------|-------------| 
   too                   And she don't always do
e|--------0----|
B|-----0-------|
G|-0-----------|
D|-2-----------|
A|-3-----------|
E|-------------|
  Pretty things

            
            
Suggest correction
Creating personal tab
Creating personal tab
You can edit any tab online and save it as your Personal.

You can edit, replace or remove any tab part or add personal notes – all changes will be seen only by you.

Personal tabs can be accessed anytime from any device, even offline.
Learn more »
comments
print report bad tab
4 comments total. Showing first comments.
+1 reply
mert100 36 Jul 10, 2017 12:12 PM

amazing, thank you! adrianne lenker is an unreal songwriter.

+1 reply
quiteacoyote 83 Aug 27, 2017 11:27 PM

great tab, way to capture such a beautiful song. thank you very much.

+1 reply
loucowell 24 Sep 06, 2017 05:24 PM

this is perfect, thanks so much

guest
You may want to rate the tab now too:
select rating
Wanna post a correction for this tab? Suggest correction