Oops, an error
Loading. Please wait.

Just The Two Of Us bass

version 4
version 4

Whole song

Interactive

1,110 views 6 this week
no commentswrite comment
1 2 3 4 5
3 more votes to show rating
add to favorites
×
Save as Personal and add changes to this tab that will be seen only by you. Learn more ›
×
You can save this tab as Personal to edit and correct it or add notes. All changes will be seen only by you. Learn more »
launch autoscroll
font size
0
reset
guitar tuner
backing track
0:00
0:00
edit
Autoscroll
slow
fast
+/-
esc
set tempo
stop
Author
This tab is slightly wrong, but it's late and I just spent about an hour and a 
half tabbing it. When I looked at the chords I didn't notice the capo on the first 
frett. If you move a majority of the notes up by one, it should sound right. I'll 
be back to correct wrongs (such as harmonic slides etc.) soon. Sorry about this, 
Ultimate-Guitar community.

KEY: 
x = Muted
()= Ghost note
S = Slap
P = Pop
h = hammer-on
/ = slide up
\ = slide down
. = Let ring

Rest for 4 measures
  1  +  2  +  3  +  4  +  |1  +  2  +  3  +  4  +  |
G|------------------------|10/11\10----13----------|
D|11/13\11----11----13----|------------------------|
A|------------------------|------------------11----|
E|------------------------|------------------------|

  1  +  2  +  3  +  4  +  |1  +  2  +  3  +  4  +  |
G|------------------------|11................\-----|
D|11/13\11----11----13----|------------------------|
A|------------------------|------------------------|
E|------------------------|------------------------|

Verse -
  1  +  2  +  3  +  4  +  |1  +  2  +  3  +  4  +  |
G|------------------------|------------------------|
D|------------------2-----|2/-4-\2-----6-----------|
A|4/-6-\4-----3-----------|------------------------|
E|------------------------|------------------4-----|

  1  +  2  +  3  +  4  +  |1  +  2  +  3  +  4  +  |
G|------------------------|------------------------|
D|------------------2-----|------------------------|
A|4/-6-\4-----3-----------|------------------------|
E|------------------------|---------x--1--x--4--x--|

  1  +  2  +  3  +  4  +  |1  +  2  +  3  +  4  +  |
G|------------------------|------------------------|
D|------------------2-----|3/-6-\3-----6-----------|
A|4/-6-\4-----3-----------|------------------------|
E|------------------------|------------------4-----|

  1  +  2  +  3  +  4  +  |1  +  2  +  3  +  4  +  |
G|------------------------|------------------------|
D|------------------2-----|3......-----------------|
A|4/-6-\4-----3-----------|------------------------|
E|------------------------|--------------------1-3-|

Chorus - 
  1  +  2  +  3  +  4  +  |1  +  2  +  3  +  4  +  |
G|------6-----------5-----|------------------------|
D|------------------------|5-----3-----------------|
A|4--x--------3--x-------x|------------6-----------|
E|------------------------|------------------4-----|
        P           P       

  1  +  2  +  3  +  4  +  |1  +  2  +  3  +  4  +  |
G|------6-----------5-----|------------------------|
D|------------------------|------------------------|
A|4--x--------3--x-------x|------------------------|
E|------------------------|0-----x---x-0h2--x--x0--|
        P           P

  1  +  2  +  3  +  4  +  |1  +  2  +  3  +  4  +  |
G|------5-----------4-----|------------------------|
D|------------------------|4-----2-----------------|
A|3--x--------2--x-------x|------------5-----------|
E|------------------------|------------------3-----|
        P           P

  1  +  2  +  3  +  4  +  |1  +  2  +  3  +  4  +  |
G|------5-----------4-----|----------/(9)\-/(7)\---|
D|------------------------|------------------------|
A|3--x--------2--x-------x|------------------------|
E|------------------------|0----x0--x--------------|
        P           P

Verse - 
  1  +  2  +  3  +  4  +  |1  +  2  +  3  +  4  +  |
G|------------------------|------------------------|
D|------------------------|------------5-----------|
A|3/-5-\3-----2-----5-----|7/-9-\7-----------------|
E|------------------------|------------------3-----|

  1  +  2  +  3  +  4  +  |1  +  2  +  3  +  4  +  |
G|------------------------|------------------------|
D|------------------------|------------------------|
A|3/-5-\3-----2-----5-----|7......-----------------|
E|------------------------|---------------2--3--5--|

  1  +  2  +  3  +  4  +  |1  +  2  +  3  +  4  +  |
G|------------------------|------------------------|
D|------------------------|------------5-----------|
A|3/-5-\3-----2-----5-----|7/-9-\7-----------0-----|
E|------------------------|------------------------|

  1  +  2  +  3  +  4  +  |1  +  2  +  3  +  4  +  |
G|------------------------|------------------------|
D|------------------------|-----------------(14)\--|
A|3/-5-\3-----2-----5-----|7......-----------------|
E|------------------------|------------------------|

Chorus - 
  1  +  2  +  3  +  4  +  |1  +  2  +  3  +  4  +  |
G|------5-----------4-----|------------------------|
D|------------------------|4---4-2---2-------------|
A|3--x--------2--x-------x|------------5---5-------|
E|------------------------|------------------3---3-|
        P           P

  1  +  2  +  3  +  4  +  |1  +  2  +  3  +  4  +  |
G|------5-----------4-----|------------------------|
D|------------------------|----0h2-----------2-----|
A|3--x--------2--x-------x|---x--------------------|
E|------------------------|0--------x--0--0-----0--|
        P           P

  1  +  2  +  3  +  4  +  |1  +  2  +  3  +  4  +  |
G|------5-----------4-----|------------------------|
D|------------------------|4-----2-----------------|
A|3--x--------2--x-------x|------------5-----------|
E|------------------------|------------------3-----|
        P           P

  1  +  2  +  3  +  4  +  |1  +  2  +  3  +  4  +  |
G|------5-----------4-----|------------------------|
D|------------------------|------------------------|
A|3--x--------2--x-------x|7-----7-----x--5-h7-----|
E|------------------------|------------------------|
        P           P

Middle-8 -

  1  +  2  +  3  +  4  +  |1  +  2  +  3  +  4  +  |
G|9-----------------------|------------------------|\
D|------------12----------|10----------9-----------| \
A|------------------------|------------------------|  \ 
E|------------------------|------------------------|   \
                                                        x2
  1  +  2  +  3  +  4  +  |1  +  2  +  3  +  4  +  |   /
G|------------------------|--------(16)...\--------|  /
D|------------------------|17----------------------| /
A|12----------10----10h12/|------15----------------|/
E|------------------------|------------------------|

  1  +  2  +  3  +  4  +  |1  +  2  +  3  +  4  +  |
G|------------------------|9/11\9-----/12----------|
D|10/12\10----9-----12----|------------------------|
A|------------------------|------------------10----|
E|------------------------|------------------------|

  1  +  2  +  3  +  4  +  |1  +  2  +  3  +  4  +  |
G|------------------------|9...........------------|
D|10/12\10----9-----12----|------------------------|
A|------------------------|------------------------|
E|------------------------|------------------12\---|

Verse -
  1  +  2  +  3  +  4  +  |1  +  2  +  3  +  4  +  |
G|------------------------|------------------------|
D|------------------------|------------5-----------|
A|3/-5-\3-----2-----6-----|7/-9-\7-----------------|
E|------------------------|------------------3-----|

  1  +  2  +  3  +  4  +  |1  +  2  +  3  +  4  +  |
G|------------------------|---------------7-----4--|
D|------------------------|------------------------|
A|3/-5-\3-----2-----6-----|7......-----5-----2-----|
E|------------------------|------------------------|

  1  +  2  +  3  +  4  +  |1  +  2  +  3  +  4  +  |
G|------------------------|------------------------|
D|------------------------|-----------/5-----------|
A|3/-5-\3-----2-----6-----|7/-9-\7-----------------|
E|------------------------|------------------3-----|

  1  +  2  +  3  +  4  +  |1  +  2  +  3  +  4  +  |
G|------------------------|------------------------|
D|------------------------|------------------------|
A|3/-5-\3-----2-----6-----|7......-----------------|
E|------------------------|------------0--2--3--5--|

Chorus - 
  1  +  2  +  3  +  4  +  |1  +  2  +  3  +  4  +  |
G|------5-----------4-----|------------------------|
D|------------------------|4---4-2---2-------------|
A|3--x--------2--x-------x|------------5---5-------|
E|------------------------|------------------3---3-|
        P           P

  1  +  2  +  3  +  4  +  |1  +  2  +  3  +  4  +  |
G|------5-----------4-----|------------------------|
D|------------------------|----2-----2-----2-------|
A|3--x--------2--x-------x|------------------------|
E|------------------------|0-x---0-x---0-----00-2--|
        P           P      S S P S S P S   P

  1  +  2  +  3  +  4  +  |1  +  2  +  3  +  4  +  |
G|------5-----------4-----|------------------------|
D|------------------------|4-----2-----------------|
A|3--x--------2--x-------x|------------5-----------|
E|------------------------|------------------3-----|
        P           P

  1  +  2  +  3  +  4  +  |1  +  2  +  3  +  4  +  |
G|------5-----------4-----|------------------------|
D|------------------------|------------------------|
A|3--x--------2--x-------x|7--7--7--7--x7-7-----7--|
E|------------------------|------------------7-----|
        P           P

  1  +  2  +  3  +  4  +  |1  +  2  +  3  +  4  +  |
G|------5-----------4-----|---11----9-----7----(12)\
D|------------------------|------------------------|
A|3--x--------2--x-----2h5|9-----7-----5-----------|
E|------------------------|------------------3-----|
        P           P      S  P  S  P  S  P  S 

  1  +  2  +  3  +  4  +  |1  +  2  +  3  +  4  +  |
G|------5-----------4-----|------------------------|
D|------------------------|----0-2----2-2-2---x----|
A|3--x--------2--x-------x|------------------------|
E|------------------------|0-x------x--x----0---0--|
        P           P      S S P P  S PSP P   P 

  1  +  2  +  3  +  4  +  |1  +  2  +  3  +  4  +  |
G|------5-----------4-----|---11----9-----7--------|
D|------------------------|------------------------|\
A|3--x--------2--x-----2h5|9-----7-----5--------10\| \ 
E|------------------------|------------------3-----|  \
        P           P      S  P  S  P  S  P  S         \
                                                        |Repeat until end*
                                                       /
  1  +  2  +  3  +  4  +  |1  +  2  +  3  +  4  +  |  /
G|------5-----------4-----|------------------------| /
D|------------------------|------------------5-----|/
A|3--x--------2--x-------x|7--7--7-x-5h7--x---5h7--|
E|------------------------|---------------0--------|
        P           P

Obviously he messes about a bit, as he does through out the whole song, so it 
gives you a chance to mess about yourself. I hope this tab gave you a good idea of 
some fills, just felt like tabbing it after working out the chords :)

Have fun!

            
            
Suggest correction
Creating personal tab
Creating personal tab
You can edit any tab online and save it as your Personal.

You can edit, replace or remove any tab part or add personal notes – all changes will be seen only by you.

Personal tabs can be accessed anytime from any device, even offline.
Learn more »
Give kudos to tab author, rate the tab!
1 2 3 4 5
comments
print report bad tab
guest
You may want to rate the tab now too:
select rating
Wanna post a correction for this tab? Suggest correction