Oops, an error
Loading. Please wait.

Lovely Day bass

version 4
version 4

Whole song

Interactive

22,485 views 81 this week
no commentswrite comment
1 2 3 4 5
x 11
add to favorites
×
Save as Personal and add changes to this tab that will be seen only by you. Learn more ›
×
You can save this tab as Personal to edit and correct it or add notes. All changes will be seen only by you. Learn more »
launch autoscroll
font size
0
reset
guitar tuner
edit
Autoscroll
slow
fast
+/-
esc
set tempo
stop
Author
Difficulty
Unregistered
intermediate
Bill Withers
Lovely Day

Tabbed by Paul Lomax paul_at_paullomax.com


[Intro]
G:-----------------------------------------------------------|
D:-----------------------------------------------------------|
A:--7-7--7-7----7-6-4-44---4---4-----------------------------|
E:--------7---7----------4----4-45-5-5-5--4-5-5-5--88-77-----|

G:-----------------------------------------------------------|
D:-----------------------------------------------------------|
A:--7-7--7-7----7-6-4-44---4---4-----------------------------|
E:--------7---7----------4----4-45-5-5-5--5-7-8-8-8--88-77---|


[Verse]
G:-----------------------------------------------------------|
D:-----------------------------------------------------------|
A:--7-7--7-7----7-6-4-44---4---4-----------------------------|
E:--------7---7----------4----4-45-5-5-5--4-5-5-5--88-77-----|

G:-----------------------------------------------------------|
D:-----------------------------------------------------------|
A:--7-7--7-7----7-6-4-44---4---4-----------------------------|
E:--------7---7----------4----4-45-5-5-5--5-7-8-8-8--3-3-3-4-|


[Bridge] Type 1 (1st Time):
G:-----------------------------------------------------------|
D:--------------------------------------------4-2------------|
A:-5-5--55---4566h7-7-77-7-----------001h2-22--2-2-----------|
E:-------------------------44h5-55---------------------------|

G:-----------------------------------------------------------|
D:------------------------4567--7----------------------------|
A:-5-5--55---4566h7-7-77-------------------------------------|
E:--------------------------------55--4567--77-7-------------|


[Chorus] Repeat x2 (Outro Repeat):
G:-----------------------------------------------------------|
D:-----------------------------------------------------------|
A:--7-7--7-7----7-6-4-44---4---4-----------------------------|
E:--------7---7----------4----4-45-5-5-5--5-7-8-8-8--88-77---|


[Bridge] Type 2 (2nd Time):
G:-------------------------------------234-------------------|
D:--------------------------4567--7-----------4-2------------|
A:-5-5--55---4566h7-7-77-7-----------------22--2-2-----------|
E:----------------------------------5------------------------|

G:-----------------------------------------------------------|
D:--------------------------4567--7--------------------------|
A:-5-5--55---4566h7-7-77-7-----------------------------------|
E:----------------------------------5---4567--77-7-----------|


[Bridge] Type 3 (3rd Time):
G:-----------------------------------------------------------|
D:--------------------------4567--7-------------4-2----------|
A:-5-5--55---4566h7-7-77-7-------------001h2-22--2-2---------|
E:----------------------------------5------------------------|

G:-----------------------------------------------------------|
D:--------------------------4567--7--------------------------|
A:-5-5--55---4566h7-7-77-7-----------------------------------|
E:----------------------------------5---4567--77-7-----------|


[Outro] Chorus Variation (Replaces 5th Outro Chorus Repeat):
G:-----------------------------------------------------------|
D:-----------------------------------------------------------|
A:--7-7--7-7----7-6-4-44---4-4674----------------------------|
E:--------7---7----------4---------5-55-55-7-8-8-8--88-77----|


Structure:
[Intro]
[Verse]
Bridge (Type 1)
Chorus (x2)
[Verse]
Bridge (Type 2)
Chorus (x2)
Bridge (Type 3)
Chorus (x4)
Chorus Variation
Chorus (x2)



************************************

| h  Hammer-on

************************************

            
            
Suggest correction
Creating personal tab
Creating personal tab
You can edit any tab online and save it as your Personal.

You can edit, replace or remove any tab part or add personal notes – all changes will be seen only by you.

Personal tabs can be accessed anytime from any device, even offline.
Learn more »
comments
print report bad tab
guest
Wanna post a correction for this tab? Suggest correction