Oops, an error
Loading. Please wait.

Lovely Day bass

version 2
version 2

Whole song

Interactive

15,445 views 21 this week
2 commentsread comments
1 2 3 4 5
x 6
add to favorites
×
Save as Personal and add changes to this tab that will be seen only by you. Learn more ›
×
You can save this tab as Personal to edit and correct it or add notes. All changes will be seen only by you. Learn more »
launch autoscroll
font size
0
reset
guitar tuner
edit
Autoscroll
slow
fast
+/-
esc
set tempo
stop
Author
Difficulty
Bill Withers - Lovely Day (Intro/Verse Only)

Played in two different ways - whichever fits your style

Standard Tuning

G|--------------------------------------------|
D|--------------------------------------------|
A|-77-7-67-676--------------------------------|
D|------------99-9-79-957-55-545-578-7-8877---|

G|--------------------------------------------|
D|-22-2-12-121--------------------------------|
A|----------- 44-4-24-042-00-0-0-023-2-3322---|
D|----------------------------4---------------|

            
            
Suggest correction
Creating personal tab
Creating personal tab
You can edit any tab online and save it as your Personal.

You can edit, replace or remove any tab part or add personal notes – all changes will be seen only by you.

Personal tabs can be accessed anytime from any device, even offline.
Learn more »
comments
print report bad tab
2 comments total.
0 reply
Freak Andy 10 Oct 25, 2010 06:11 PM

This is how it's played the very first time. Notice the last few notes are different. Through out the song, it changes slightly.

G|---------------------------------------------|
D|---------------------------------------------|
A|-77-7-67-676-44-4--4--4----------------------|
D|------------------7--5-7-55-545-455-5-8877---|


Also note the correction on the
--4---
-5-7--

You just had one note out of order.

0 reply
cornflakes93 201 May 25, 2012 06:29 AM

why do you have the tab tuning set to drop D but above it says standard tuning? xD

guest
You may want to rate the tab now too:
select rating
Wanna post a correction for this tab? Suggest correction