Oops, an error
Loading. Please wait.
We have an official White Wedding tab made by UG professional guitarists. Check out the tab »
×
20,174 views 6 this week
3 commentsread comments
1 2 3 4 5
x 9
add to favorites
×
Save as Personal and add changes to this tab that will be seen only by you. Learn more ›
×
You can save this tab as Personal to edit and correct it or add notes. All changes will be seen only by you. Learn more »
launch autoscroll
font size
0
reset
how to read this tab
guitar tuner
backing track
0:00
0:00
edit
Autoscroll
slow
fast
+/-
esc
set tempo
stop
Billy Idol - White Wedding


Tabbed by : Todd the beast


Intro (distortion)
(slide hands up and down string without pressing down to get harmonic sound)
e -|--------------------------|--------------------------|
b -|--------------------------|--------------------------|
g -|--------------------------|-4------------------------|
d -|--------------------------|-4------------------------|
a -|--------------------------|-2------------------------|
e -|-0-0-0-0-0-0-0-0-0-0-0-0-0|--------------------------|


Intro - Lead 

e -|--2-----------------2-----|--0-----------2-----------|
b -|-----3-----------3-----3--|--0-----------3-----------|
g -|--------4-----4-----------|--1-----------2-----------|
d -|-----------4--------------|--2-----------0-----------|
a -|--------------------------|--2-----------------------|
e -|--------------------------|--0-----------------------|

e -|--2-----------------2-----|--5-----------4-----------|
b -|-----3-----------3-----3--|--3-----------2-----------|
g -|--------4-----4-----------|--2-----------1-----------|
d -|-----------4--------------|--------------------------|
a -|--------------------------|--------------------------|
e -|--------------------------|--------------------------|

Intro - Rhythm (distortion)
e -|--------------------------|--------------------------|
b -|--------------------------|--------------------------|
g -|-4------------------------|--------------7--x-7-7-7--|
d -|-4------------------------|--2-----------7--x-7-7-7--|
a -|-2------------------------|--2-----------5--x-5-5-5--|
e -|--------------------------|--0-----------------------|


e -|--------------------------|--------------------------|
b -|--------------------------|--------------------------|
g -|-4------------------------|--2--------------x-7-7-7--|
d -|-4------------------------|--2-----------2--x-7-7-7--|
a -|-2------------------------|--0-----------2--x-5-5-5--|
e -|--------------------------|--------------0-----------|







Verse - Rhythm

     Hey      Little   Sister  What    have   you   done...
e -|--------------------------|--------------------------|
b -|--------------------------|--------------------------|
g -|-4-4-4-4-4-4-4-4-4-4-4-4-4|-4-4-4-4-4-4-4-4-4-4-4-4-4|
d -|-4-4-4-4-4-4-4-4-4-4-4-4-4|-4-4-4-4-4-4-4-4-4-4-4-4-4|
a -|-2-2-2-2-2-2-2-2-2-2-2-2-2|-2-2-2-2-2-2-2-2-2-2-2-2-2|
e -|--------------------------|--------------------------|


e -|--------------------------|--------------------------|
b -|--------------------------|--------------------------|
g -|-2-2-2-2-2-2-2-2-2-2-2-2-2|--------------------------|
d -|-2-2-2-2-2-2-2-2-2-2-2-2-2|-2-2-2-2-2-2-2-2-2-2-2-2-2|
a -|-0-0-0-0-0-0-0-0-0-0-0-0-0|-2-2-2-2-2-2-2-2-2-2-2-2-2|
e -|--------------------------|-0-0-0-0-0-0-0-0-0-0-0-0-0|


    Hey      Little   Sister   Who's   the   only   one...
e -|--------------------------|--------------------------|
b -|--------------------------|--------------------------|
g -|-4-4-4-4-4-4-4-4-4-4-4-4-4|-4-4-4-4-4-4-4-4-4-4-4-4-4|
d -|-4-4-4-4-4-4-4-4-4-4-4-4-4|-4-4-4-4-4-4-4-4-4-4-4-4-4|
a -|-2-2-2-2-2-2-2-2-2-2-2-2-2|-2-2-2-2-2-2-2-2-2-2-2-2-2|
e -|--------------------------|--------------------------|


e -|--------------------------|--------------------------|
b -|--------------------------|--------------------------|
g -|-2-2-2-2-2-2-2-2-2-2-2-2-2|--------------------------|
d -|-2-2-2-2-2-2-2-2-2-2-2-2-2|-2-2-2-2-2-2-2-2-2-2-2-2-2|
a -|-0-0-0-0-0-0-0-0-0-0-0-0-0|-2-2-2-2-2-2-2-2-2-2-2-2-2|
e -|--------------------------|-0-0-0-0-0-0-0-0-0-0-0-0-0|

    Hey      Little   Sister   Who's    your     superman
e -|--------------------------|--------------------------|
b -|--------------------------|--------------------------|
g -|-4-4-4-4-4-4-4-4-4-4-4-4-4|-4-4-4-4-4-4-4-4-4-4-4-4-4|
d -|-4-4-4-4-4-4-4-4-4-4-4-4-4|-4-4-4-4-4-4-4-4-4-4-4-4-4|
a -|-2-2-2-2-2-2-2-2-2-2-2-2-2|-2-2-2-2-2-2-2-2-2-2-2-2-2|
e -|--------------------------|--------------------------|

    Hey     Little   Sister    Who's  the  one  you  want
e -|--------------------------|--------------------------|
b -|--------------------------|--------------------------|
g -|-2-2-2-2-2-2-2-2-2-2-2-2-2|-2-2-2-2-2-2-2-2-2-2-2-2-2|
d -|-2-2-2-2-2-2-2-2-2-2-2-2-2|-2-2-2-2-2-2-2-2-2-2-2-2-2|
a -|-0-0-0-0-0-0-0-0-0-0-0-0-0|-0-0-0-0-0-0-0-0-0-0-0-0-0|
e -|--------------------------|--------------------------|

    Hey      Little   Sister            Shotgun...
e -|--------------------------|--------------------------|
b -|--------------------------|--------------------------|
g -|-4-4-4-4-4-4-4-4-4-4-4-4-4|-4-4-4-4-4-4-4-4-4-4-4-4-4|
d -|-4-4-4-4-4-4-4-4-4-4-4-4-4|-4-4-4-4-4-4-4-4-4-4-4-4-4|
a -|-2-2-2-2-2-2-2-2-2-2-2-2-2|-2-2-2-2-2-2-2-2-2-2-2-2-2|
e -|--------------------------|--------------------------|


Chorus
 
 It's a  nice day to... Start Again                  
e -|--------------------------|--------------------------|
b -|--------------------------|--------------------------|
g -|--2-----------------------|-4------------------------|
d -|--2-----------2-----------|-4------------------------|
a -|--0-----------2-----------|-2------------------------|
e -|--------------0-----------|--------------------------|

 It's a nice day for a White Wedding
e -|--------------------------|--------------------------|
b -|--------------------------|--------------------------|
g -|--------------7-----------|-4------------------------|
d -|--2-----------7-----------|-4------------------------|
a -|--2-----------5-----------|-2------------------------|
e -|--0-----------------------|--------------------------|

 It's a nice day to Start Again
e -|--------------------------|
b -|--------------6-----------|
g -|--------------7-----------|
d -|--2-----------7-----------|
a -|--2-----------5-----------|
e -|--0-----------------------|



Verse (with Lead)

e -|--------------------------|
b -|--------------------------|
g -|------7-----7---7-7-666-7-|
d -|------7-----7---7-7-777-7-|
a -|--x-x---x-x---x-----------|
e -|--------------------------|


Then Chorus (with lead)


Then Intro extended (bridge)

e -|--2-----------------2-----|--0-----------2-----------|
b -|-----3-----------3-----3--|--0-----------3-----------|
g -|--------4-----4-----------|--1-----------2-----------|
d -|-----------4--------------|--2-----------0-----------|
a -|--------------------------|--2-----------------------|
e -|--------------------------|--0-----------------------|

e -|--2-----------------2-----|--5-----------4-----------|
b -|-----3-----------3-----3--|--3-----------2-----------|
g -|--------4-----4-----------|--2-----------1-----------|
d -|-----------4--------------|--------------------------|
a -|--------------------------|--------------------------|
e -|--------------------------|--------------------------|

e -|--2-----------------2-----|--2-----------------2-----|
b -|-----3-----------3-----3--|-----3-----------3-----3--|
g -|--------4-----4-----------|--------4-----4-----------|
d -|-----------4--------------|-----------4--------------|
a -|--------------------------|--------------------------|
e -|--------------------------|--------------------------|

e -|--2-----------------2-----|--2-----------------------|
b -|-----3-----------3-----3--|-----3-------------3/5-3--|
g -|--------4-----4-----------|--------4--------2--------|
d -|-----------4--------------|-----------4--2-----------|
a -|--------------------------|--------------------------|
e -|--------------------------|--------------------------|

e -|--------------------------|--------------------------|
b -|--2-----------------------|--------------------------|
g -|-----2-----4--------------|--------------------------|
d -|--------4-----------------|--------------------------|
a -|--------------------------|--------------------------|
e -|--------------------------|--------------------------|

e -|--------------------------|--------------------------|
b -|--------------------------|--------------------------|
g -|--2-----------------------|-4------------------------|
d -|--2-----------2-----------|-4------------------------|
a -|--0-----------2-----------|-2------------------------|
e -|--------------0-----------|--------------------------|



Then Verse (with lead)

Then Chorus (with lead)

Then Outro (clean chords... distorted effects on lead)

e -|--2-----------------------|
b -|--3-----/15---------------|
g -|--4-----------------------|
d -|--4-----------------------|
a -|--2-----------------------|
e -|--------------------------|

e -|--2-----------------------|
b -|--3-----------------------|
g -|--4-----r(4)--------------|
d -|--4-----------------------|
a -|--2-----------------------|
e -|--------------------------|

e -|--2-----------------------|
b -|--3-----/15---------------|
g -|--4-----------------------|
d -|--4-----------------------|
a -|--2-----------------------|
e -|--------------------------|

e -|--2-----------------------|
b -|--3-----------------------|
g -|--4-----------------------|
d -|--4-----------------------|
a -|--2-----------------------|
e -|--------------------------|



Then Chorus


Lyrics

Hey little sister what have you done
Hey little sister who's the only one
Hey little sister who's your superman
Hey little sister who's the one you want
Hey little sister shot gun!

It's a nice day to start again
It's a nice day for a white wedding
It's a nice day to start again.

Hey little sister what have you done
Hey little sister who's the only one
I've been away for so long (so long)
I've been away for so long (so long)
I let you go for so long

It's a nice day to start again (come on)
It's a nice day for a white wedding
It's a nice day to start again.

(Pick it up)

Take me back home
There is nothin' fair in this world
There is nothin' safe in this world
And there's nothin' sure in this world
And there's nothin' pure in this world
Look for something left in this world
Start again
Come on

It's a nice day for a white wedding
It's a nice day to start again.
It's a nice day for a white wedding
It's a nice day to start again






This is my first tab so give me some credit.

Tabbed by : Todd the beast

email:    chairthrower505@yahoo.com 






            
            
Suggest correction
Creating personal tab
Creating personal tab
You can edit any tab online and save it as your Personal.

You can edit, replace or remove any tab part or add personal notes – all changes will be seen only by you.

Personal tabs can be accessed anytime from any device, even offline.
Learn more »
comments
print report bad tab
3 comments total.
0 reply
spade_of_jack 10 Jan 14, 2007 12:26 PM

Not as correct in some places as the other tabs, but it is full in length, has the harmonic intro, and variations to the main riffs, which is better than an incomplete tab.

-1 reply
flipdirtman 10 Aug 01, 2007 07:07 PM

pretty cool dude i didnt really see any mistakes but i didnt look over it that thourough so pretty awesome DUDE

0 reply
cannottell 10 Oct 17, 2007 05:11 PM

few mistakes but easy to fix and it is set up so you don't have to be a billy idol expert to play it

guest
Wanna post a correction for this tab? Suggest correction