Oops, an error
Loading. Please wait.

Its Still Rock And Roll To Me bass

version 3
version 3

Whole song

  • Originally tabbed by LoudLon on the website BigBas... Show more

Interactive

494 views 6 this week
1 commentread comment
1 2 3 4 5
1 last vote to show rating
add to favorites
×
Save as Personal and add changes to this tab that will be seen only by you. Learn more ›
×
You can save this tab as Personal to edit and correct it or add notes. All changes will be seen only by you. Learn more »
launch autoscroll
font size
0
reset
guitar tuner
backing track
0:00
0:00
edit
Autoscroll
slow
fast
+/-
esc
set tempo
stop
About this tab version
Originally tabbed by LoudLon on the website BigBassTabs.com. This tab is completely accurate to both the studio and the majority of the live versions of this song. Was this info helpful? Yes No
INTRO:
           (Rest x4)
G |-------------------------|
D |-------------------------|
A |-------------------------|
E |-r-----------------------|
    1 + + 2 + + 3 + + 4 + + 


VERSE 1:
           (Rest x8)
G |-------------------------|
D |-------------------------|
A |-------------------------|
E |-r-----------------------|
    1 + + 2 + + 3 + + 4 + +


CHORUS 1:

G |-------------------------|-------------------------|-------------------------|-------------------------|
D |-------------------------|-------------------------|-------------------------|-------------------------|
A |-------------------------|-------------------------|-------------------------|-5---5-5---5-------------|
E |-0---0-0---0-0---0-0---0-|-5---5-5---5-5---5-5---5-|-0---0-0---0-0---0-0---0-|-------------3---3-3---3-|
    1 + + 2 + + 3 + + 4 + +  1 + + 2 + + 3 + + 4 + +   1 + + 2 + + 3 + + 4 + +   1 + + 2 + + 3 + + 4 + + 

                                                                                           ( x2 )
G |-------------------------|-------------------------|-------------------------||-------------------------|
D |-------------------------|-------------------------|-------------------------||-------------------------|
A |-3---3-3---3-------------|-1---1-1---1-------------|-0---0-0---0-------------||-3---3-3---3-3---3-3---3-|
E |-------------0---0-0---0-|-------------1---1-1---1-|-------------3---3-3---3-||-------------------------|
    1 + + 2 + + 3 + + 4 + +   1 + + 2 + + 3 + + 4 + +   1 + + 2 + + 3 + + 4 + +    1 + + 2 + + 3 + + 4 + + 


VERSE 2:

G |-------------------------|-------------------------|-------------------------|-------------------------|
D |-------------------------|-------------------------|-------------------------|-------------------------|
A |-3---3-3---3-3---3-3---3-|-7---7-7---7-7---7-7---7-|-------------------------|-------------------------|
E |-------------------------|-------------------------|-6---6-6---6-6-\-\-\-\-\-|-1---1-1---1-1---1-1---1-|
    1 + + 2 + + 3 + + 4 + +   1 + + 2 + + 3 + + 4 + +   1 + + 2 + + 3 + + 4 + +   1 + + 2 + + 3 + + 4 + +

G |-------------------------|-------------------------|-------------------------|-------------------------|
D |-------------------------|-------------------------|-------------------------|-3---3-3---3-3---3-3---3-|
A |-------3---3-3---3-3---3-|-------------------------|-1---1-1---1-1---1-1---1-|-------------------------|
E |-0---0-------------------|-0---0-0---0-0---0-0---0-|-------------------------|-------------------------|
    1 + + 2 + + 3 + + 4 + +   1 + + 2 + + 3 + + 4 + +   1 + + 2 + + 3 + + 4 + +   1 + + 2 + + 3 + + 4 + + 


CHORUS 2:

G |-------------------------|-------------------------|-------------------------|-------------------------|
D |-------------------------|-------------------------|-------------------------|-------------------------|
A |-------------------------|-------------------------|-------------------------|-5---5-5---5-------------|
E |-0---0-0---0-0---0-0---0-|-5---5-5---5-5---5-5---5-|-0---0-0---0-0---0-0---0-|-------------3---3-3---3-|
    1 + + 2 + + 3 + + 4 + +   1 + + 2 + + 3 + + 4 + +   1 + + 2 + + 3 + + 4 + +   1 + + 2 + + 3 + + 4 + + 

G |-------------------------|-------------------------|-------------------------|
D |-------------------------|-------------------------|-------------------------|
A |-3---3-3---3-------------|-1---1-1---1-------------|-0---0-0---0-------------|
E |-------------0---0-0---0-|-------------1---1-1---1-|-------------3---3-3---3-|
    1 + + 2 + + 3 + + 4 + +   1 + + 2 + + 3 + + 4 + +   1 + + 2 + + 3 + + 4 + +

G |-------------------------|-------------------------|
D |-------------------------|-------------------------|
A |-3---3-3---3-3---3-3---3-|-3-----------------------|
E |-------------------------|-------0-----1-----2-----|
    1 + + 2 + + 3 + + 4 + +   1 + + 2 + + 3 + + 4 + +


BRIDGE:

G |-------------------------|-------------------------|-------------------------|-------------------------|
D |-------------------------|-------------------------|-------------------------|-------------------------|
A |-------------------------|-------------------------|-------------------------|-------------------------|
E |-3---3-3---3-3---3-3---0-|-1---1-1---1-1---1-1---0-|-0---0-0---0-0---0-0---0-|-5---5-5---5-5---5-5---0-|
    1 + + 2 + + 3 + + 4 + +   1 + + 2 + + 3 + + 4 + +   1 + + 2 + + 3 + + 4 + +   1 + + 2 + + 3 + + 4 + + 

G |-------------------------|-------------------------|-------------------------|-------------------------|
D |-------------------------|-------------------------|-------------------------|-------------------------|
A |-------------------------|-------------------------|-------------------------|-------------------------|
E |-3---3-3---3-3---3-3---0-|-1---1-1---1-1---1-1---0-|-0---0-0---0-0---0-0---0-|-4---4-4---4-4---4-4---4-|
    1 + + 2 + + 3 + + 4 + +   1 + + 2 + + 3 + + 4 + +   1 + + 2 + + 3 + + 4 + +   1 + + 2 + + 3 + + 4 + + 

G |-------------------------|-------------------------|-------------------------|
D |-------------------------|-------------------------|-------------------------|
A |-6---6-6---6-6---6-6-----|-------------------------|-------------------------|
E |-----------------------0-|-1---1-1---1-1---1-1---1-|-3-r---------------------|
    1 + + 2 + + 3 + + 4 + +   1 + + 2 + + 3 + + 4 + +   1 + + 2 + + 3 + + 4 + +


VERSE 3:

G |-------------------------|-------------------------|-------------------------|-------------------------|
D |-------------------------|-------------------------|-------------------------|-------------------------|
A |-3---3-3---3-3---3-3---3-|-7---7-7---7-7---7-7---7-|-------------------------|-------------------------|
E |-------------------------|-------------------------|-6---6-6---6-6-\-\-\-\-\-|-1---1-1---1-1---1-1---1-|
    1 + + 2 + + 3 + + 4 + +   1 + + 2 + + 3 + + 4 + +   1 + + 2 + + 3 + + 4 + +   1 + + 2 + + 3 + + 4 + +

G |-------------------------|-------------------------|-------------------------|-------------------------|
D |-------------------------|-------------------------|-------------------------|-3---3-3---3-3---3-3---3-|
A |-3---3-3---3-3---3-3---3-|-------------------------|-1---1-1---1-1---1-1---1-|-------------------------|
E |-------------------------|-0---0-0---0-0---0-0---0-|-------------------------|-------------------------|
    1 + + 2 + + 3 + + 4 + +   1 + + 2 + + 3 + + 4 + +   1 + + 2 + + 3 + + 4 + +   1 + + 2 + + 3 + + 4 + + 


CHORUS 3:

G |-------------------------|-------------------------|-------------------------|-------------------------|
D |-------------------------|-------------------------|-------------------------|-------------------------|
A |-------------------------|-------------------------|-------------------------|-5---5-5---5-------------|
E |-0---0-0---0-0---0-0---0-|-5---5-5---5-5---5-5---5-|-0---0-0---0-0---0-0---0-|-------------3---3-3---3-|
    1 + + 2 + + 3 + + 4 + +   1 + + 2 + + 3 + + 4 + +   1 + + 2 + + 3 + + 4 + +   1 + + 2 + + 3 + + 4 + +

G |-------------------------|-------------------------|-------------------------|
D |-------------------------|-------------------------|-------------------------|
A |-3---3-3---3-------------|-1---1-1---1-------------|-0---0-0---0-------------|
E |-------------0---0-0---0-|-------------1---1-1---1-|-------------3---3-3---3-|
    1 + + 2 + + 3 + + 4 + +   1 + + 2 + + 3 + + 4 + +   1 + + 2 + + 3 + + 4 + +

G |-------------------------|-------------------------|
D |-------------------------|-------------------------|
A |-3---3-3---3-3---3-3---3-|-3-----------------------|
E |-------------------------|-------0-----1-----2-----|
    1 + + 2 + + 3 + + 4 + +   1 + + 2 + + 3 + + 4 + +


SAX SOLO:

G |-------------------------|-------------------------|-------------------------|-------------------------|
D |-------------------------|-------------------------|-------------------------|-------------------------|
A |-------------------------|-------------------------|-------------------------|-------------------------|
E |-3---3-3---3-3---3-3---0-|-1---1-1---1-1---1-1---0-|-0---0-0---0-0---0-0---0-|-5---5-5---5-5---5-5---0-|
    1 + + 2 + + 3 + + 4 + +   1 + + 2 + + 3 + + 4 + +   1 + + 2 + + 3 + + 4 + +   1 + + 2 + + 3 + + 4 + + 

G |-------------------------|-------------------------|-------------------------|-------------------------|
D |-------------------------|-------------------------|-------------------------|-------------------------|
A |-------------------------|-------------------------|-------------------------|-------------------------|
E |-3---3-3---3-3---3-3---0-|-1---1-1---1-1---1-1---0-|-0---0-0---0-0---0-0---0-|-4---4-4---4-4---4-4---4-|
    1 + + 2 + + 3 + + 4 + +   1 + + 2 + + 3 + + 4 + +   1 + + 2 + + 3 + + 4 + +   1 + + 2 + + 3 + + 4 + + 

G |-------------------------|-------------------------|-------------------------|-------------------------|
D |-------------------------|-------------------------|-------------------------|-------------------------|
A |-6---6-6---6-6---6-6---\-|-------------------------|-------------------------|-------------------------|
E |-------------------------|-1---1-1---1-1---1-1---1-|-3-r---------------------|-r-----------------------|
    1 + + 2 + + 3 + + 4 + +   1 + + 2 + + 3 + + 4 + +   1 + + 2 + + 3 + + 4 + +   1 + + 2 + + 3 + + 4 + +


VERSE 4:

G |-------------------------|-------------------------|-------------------------|-------------------------|
D |-------------------------|-------------------------|-------------------------|-------------------------|
A |-3---3-3---3-3---3-3---3-|-7---7-7---7-7---7-7--7--|-------------------------|-------------------------|
E |-------------------------|-------------------------|-6---6-6---6-6-\-\-\-\-\-|-1---1-1---1-1---1-1---1-|
    1 + + 2 + + 3 + + 4 + +   1 + + 2 + + 3 + + 4 + +   1 + + 2 + + 3 + + 4 + +   1 + + 2 + + 3 + + 4 + +

G |-------------------------|-------------------------|-------------------------|-------------------------|
D |-------------------------|-------------------------|-------------------------|-3---3-3---3-3---3-3---3-|
A |-3---3-3---3-3---3-3---3-|-------------------------|-1---1-1---1-1---1-1---1-|-------------------------|
E |-------------------------|-0---0-0---0-0---0-0---0-|-------------------------|-------------------------|
    1 + + 2 + + 3 + + 4 + +   1 + + 2 + + 3 + + 4 + +   1 + + 2 + + 3 + + 4 + +   1 + + 2 + + 3 + + 4 + +


CHORUS 4:

G |-------------------------|-------------------------|-------------------------|-------------------------|
D |-------------------------|-------------------------|-------------------------|-------------------------|
A |-------------------------|-------------------------|-------------------------|-5---5-5---5-------------|
E |-0---0-0---0-0---0-0---0-|-5---5-5---5-5---5-5---5-|-0---0-0---0-0---0-0---0-|-------------3---3-3---3-|
    1 + + 2 + + 3 + + 4 + +   1 + + 2 + + 3 + + 4 + +   1 + + 2 + + 3 + + 4 + +   1 + + 2 + + 3 + + 4 + + 

G |-------------------------|-------------------------|-------------------------|-------------------------|
D |-------------------------|-------------------------|-------------------------|-------------------------|
A |-3---3-3---3-------------|-1---1-1---1-------------|-0---0-0---0-------------|-3---3-3---3-3---3-3---3-|
E |-------------0---0-0---0-|-------------1---1-1---1-|-------------3---3-3---3-|-------------------------|
    1 + + 2 + + 3 + + 4 + +   1 + + 2 + + 3 + + 4 + +   1 + + 2 + + 3 + + 4 + +   1 + + 2 + + 3 + + 4 + + 


OUTRO:
                                                                                              (Let ring)
G |-------------------------|-------------------------|-------------------------|-------------------------|
D |-------------------------|-------------------------|-------------------------|-------------------------|
A |-3---r-------------------|-1---r-------------------|-------------------------|-------------3-----------|
E |-------------0---r-------|-------------1---r-------|-3---r-------------------|-r-----------------------|
    1 + + 2 + + 3 + + 4 + +   1 + + 2 + + 3 + + 4 + +   1 + + 2 + + 3 + + 4 + +   1 + + 2 + + 3 + + 4 + +

LEGEND

r = rest
\ = slide down

            
            
Suggest correction
Creating personal tab
Creating personal tab
You can edit any tab online and save it as your Personal.

You can edit, replace or remove any tab part or add personal notes – all changes will be seen only by you.

Personal tabs can be accessed anytime from any device, even offline.
Learn more »
Give kudos to tab author, rate the tab!
1 2 3 4 5
comments
print report bad tab
1 comment total.
0 reply
LoudLon 347 Nov 14, 2017 12:02 AM

I wrote this tab for BigBassTabs.com It was submitted here without my knowledge or approval.

guest
You may want to rate the tab now too:
select rating
Wanna post a correction for this tab? Suggest correction