Oops, an error
Loading. Please wait.

Vienna bass

version 2
version 2

Whole song

Interactive

1,501 views 12 this week
no commentswrite comment
1 2 3 4 5
x 4
add to favorites
×
Save as Personal and add changes to this tab that will be seen only by you. Learn more ›
×
You can save this tab as Personal to edit and correct it or add notes. All changes will be seen only by you. Learn more »
launch autoscroll
font size
0
reset
guitar tuner
edit
Autoscroll
slow
fast
+/-
esc
set tempo
stop
[Verse]

"Slow down you crazy child" (0:15)
G|---------3----------------------------------------------|
D|----5---------3----6---------8----10----/12--12\--------|
A|------------------------6-------------------------------|
E|--------------------------------------------------------|

G|-----------------------.------------------------7-------|
D|--------------3---5-6--5--3-----------------------------|
A|-----------------------------6---------------5----------|
E|----3----6------------------------6----5----------------|


[Chorus]

"But you know when the truth is told" (0:46)                                                                
G|------------.-.-----------------------------------------------------------------|
D|------------5-7-8--7--5----------3h5---------------------4----3-----------------|
A|----6----8---------------8--6-------------5---------3---------------1-----1-0---|
E|---------------------------------------5------3-------------------------1-------|


[Verse]

"Slow down you're doing fine" (1:09)
G|-----------------------------------------------------|   *In verse 2, the longer notes are only
D|--------------3----6-------------------------12\-----|    held for half the interval between
A|------------------------6--------------.-------------|    it and the next. Listening to the 
E|----3----6-------------------6----8---/10-10---------|    recording gives a clearer picture. 

G|-----------------------------------------------------|
D|-----------------------------.-----------------------|
A|---------1-----.-----------3-5--6------------345--5--|
E|----3-\------4-3--1----4-------------6----5----------|


[Chorus]

"You've got your passion, You've got your pride" (1:39)
G|-------------------------------------------------------------------------------|
D|------------7--8--7--5-----------------------------------4----3----------8-7---|
A|----6----8--------------8--6--------.---5-3-.-------3------------------8-------|
E|--------------------------------0h3-5-------5--3-------------------6-----------|


[Solo]

(2:03)
G|--------------------------------------------/7/7\--|
D|-----5---------------6---5-.-----------------------|
A|---------5------8----------8--6---5----------------|
E|-----------6-----------------------86----5---------|


[Chorus]

 "Slow down you crazy child" (2:18)
G|------------------------------------------7--------------11----10----------|
D|-------5-----7--8--7--5---------3h5--7--------5\---------------------8-----|
A|----6-----8--------------8--6-----------5---------\3-----------------------|
E|---------------------------------------------------------------------------|


[Chorus]

 "And you know that when the truth is told" (2:41)
G|---------------.-.---------------------------------------------------------|
D|-------5-----.-5-7-8--7--5----------3h5------.---------------4----3--------|
A|----6-----8--8--------------8--6-----------5-3----------3------------------|
E|----------------------------------------5--------5-3-----------------------|

G|----------------------------------------------------------|
D|----------------------------------------------------------|
A|----1-------------3---------------------------------------|
E|---------1-2-3---------1----------------------------------|

***********************************
| /  slide up
| \  slide down
| h  hammer-on
| p  pull-off
| ~  vibrato
| +  harmonic
| x  Mute note
***********************************

            
            
Suggest correction
Creating personal tab
Creating personal tab
You can edit any tab online and save it as your Personal.

You can edit, replace or remove any tab part or add personal notes – all changes will be seen only by you.

Personal tabs can be accessed anytime from any device, even offline.
Learn more »
comments
print report bad tab
guest
You may want to rate the tab now too:
select rating
Wanna post a correction for this tab? Suggest correction