Oops, an error
Loading. Please wait.
We have an official Devil In A Midnight Mass tab made by UG professional guitarists. Check out the tab »
×
8,620 views 3 this week
5 commentsread comments
1 2 3 4 5
x 9
add to favorites
×
Save as Personal and add changes to this tab that will be seen only by you. Learn more ›
×
You can save this tab as Personal to edit and correct it or add notes. All changes will be seen only by you. Learn more »
launch autoscroll
font size
0
reset
how to read this tab
guitar tuner
edit
Autoscroll
slow
fast
+/-
esc
set tempo
stop
Drop D Tuning

/ = Slide

  Intro
e|---------------------------------------------------------|
B|---------------------------------------------------------|
G|---------------------------------------------------------|
D|---------------------------------------------------------|
A|-------5-----------8-5-7---------------5-----------8-5-7-|
D|-5-7-8---0-8-0-7-0-------0-7/3-0-5-7-8---0-8-0-7-0-------|

e|-------------------------------------------------|
B|-------------------------------------------------|
G|-------------------------------------------------|
D|-0-7/3-0-5-7-8-------------7---5-0-7/3-0-5-7-8---|
A|-0-7/3-0-5-7-8-5-5-5-5-5-5-8---7-0-7/3-0-5-7-8-5-|
D|-0-7/3-0-5-7-8-0-0-8-0-7-0---0---0-7/3-0-5-7-8-0-|

e|-----------------------------------------------|
B|-----------------------------------------------|
G|-----------------------------------------------|
D|-7/3-0-5-7-8-------------7---5-0-7/3-0-5-7-8---|
A|-7/3-0-5-7-8-5-5-5-5-5-5-8---7-0-7/3-0-5-7-8-5-|
D|-7/3-0-5-7-8-0-0-8-0-7-0---0---0-7/3-0-5-7-8-0-|

                   Verse:
e|---------------------------------------------------------|
B|---------------------------------------------------------|
G|---------------------------------------------------------|
D|-0-7/3-0-5-7-8-----------------------------7/3-----------|
A|-0-7/3-0-5-7-8-5---------------------------7/3---------5-|
D|-0-7/3-0-5-7-8-0---------------------------7/3-0-5-7-8-0-|

e|----------------------------------------------------------------------|
B|----------------------------------------------------------------------|
G|----------------------------------------------------------------------|
D|--------------------------------7/3-----------------------------------|
A|--------------------------------7/3---------5-------------------------|
D|--------------------------------7/3-0-5-7-8-0-------------------------|

e|---------------------------------------------------------|
B|---------------------------------------------------------|
G|---------------------------------------------------------|
D|-----7/3-------------------------------------7/3---------|
A|-(5)-7/3---------5---------------------------7/3-------3-|
D|-(0)-7/3-0-5-7-8-0---------------------------7/3-0-5-7---|

  Pre-Chorus
e|-0--------------------0-------------------------------------------|
B|-3--------------------5-------------------------------------------|
G|-0--------------------0-------------------------------------------|
D|-3--------------------5-----------------------7---5-0-7/3---------|
A|-1--------------------0-------------5-5-5-5-5-8---7-0-7/3-------3-|
D|------------------------------------0-8-0-7-0---0---0-7/3-0-5-7---|

e|-0-------------------0------------------------------------------|
B|-3-------------------5------------------------------------------|
G|-0-------------------0------------------------------------------|
D|-3-------------------5----------------------7---5-0-7/3---------|
A|-1-------------------0------------5-5-5-5-5-8---7-0-7/3-------3-|
D|----------------------------------0-8-0-7-0---0---0-7/3-0-5-7---|
 
e|-0-----------------0--------------0--------------0------------|
B|-3-----------------5--------------6--------------8------------|
G|-0-----------------0--------------0--------------0------------|
D|-3-----------------5--------------7--------------7------------|
A|-1-----------------0--------------5--------------8------------|
D|--------------------------------------------------------------|

e|-0-------------0----------------------------0-|
B|-3-------------5----------------------------6-|
G|-0-------------0----------------------------7-|
D|-3-------------5----------------7/3-0-5-7-8-7-|
A|-1-------------0----------------7/3-0-5-7-8-5-|
D|--------------------------------7/3-0-5-7-8---|

  Chorus:
e|-0--0-0--0-0--0-0--0-0--0---0--0--0---0--0---0--0---0--0---0---|
B|-6--6-6--6-6--6-6--6-6--6--10--10-10--10-10--10-10--10-10--10--|
G|-7--7-7--7-7--7-7--7-7--7---0--0--0---0--0---0--0---0--0---0---|
D|-7--7-7--7-7--7-7--7-7--7--10--10-10--10-10--10-10--10-10--10--|
A|-5--5-5--5-5--5-5--5-5--5---8--8--8---8--8---8--8---8--8---8---|
D|---------------------------------------------------------------|
 
e|-0---0--0---0--0---0--0---0--0---0--0--0-0-0-0-0-0-0-|
B|-11--11-11--11-11--11-11--11-11--11-3--3-3-3-3-3-3-5-|
G|-0---0--0---0--0---0--0---0--0---0--0--0-0-0-0-0-0-0-|
D|-12--12-12--12-12--12-12--12-12--12-3--3-3-3-3-3-3-5-|
A|-10--10-10--10-10--10-10--10-10--10-1--1-1-1-1-1-1-0-|
D|-----------------------------------------------------|

e|-0-----------0-|
B|-5-----------6-|
G|-0-----------7-|
D|-5-3-0-5-7-8-7-|
A|-0-3-0-5-7-8-5-|
D|---3-0-5-7-8---|

e|-0--0-0--0-0--0-0--0-0--0---0--0--0---0--0---0--0---0--0---0---|
B|-6--6-6--6-6--6-6--6-6--6--10--10-10--10-10--10-10--10-10--10--|
G|-7--7-7--7-7--7-7--7-7--7---0--0--0---0--0---0--0---0--0---0---|
D|-7--7-7--7-7--7-7--7-7--7--10--10-10--10-10--10-10--10-10--10--|
A|-5--5-5--5-5--5-5--5-5--5---8--8--8---8--8---8--8---8--8---8---|
D|---------------------------------------------------------------|

e|-0--0---0--0--0-0--0-0--0-0-0-0-0-0-0--0---------------|
B|-11-10--10-8--8-5--5-3--3-3-3-3-3-3-3--3---------------|
G|-0--0---0--0--0-0--0-0--0-0-0-0-0-0-0--0---------------|
D|-12-10--10-8--8-5--5-3--3-3-3-3-3-3-3--3---------------|
A|-10-8---8--7--7-3--3-1--1-1-1-1-1-1-1--1-------------5-|
D|-----------------------------------------7-3-0-5-7-8-0-|

Interlude:
e|-----------------------------------------------------------------|
B|-----------------------------------------------------------------|
G|-----------------------------------------------------------------|
D|-----------7---5-0-7/3-0-5-7-8-------------7---5-0-7/3-0-5-7-8---|
A|-5-5-5-5-5-8---7-0-7/3-0-5-7-8-5-5-5-5-5-5-8---7-0-7/3-0-5-7-8-5-|
D|-0-8-0-7-0---0---0-7/3-0-5-7-8-0-0-8-0-7-0---0---0-7/3-0-5-7-8-0-|

  Verse:
e|---------------------------------------------------------|
B|---------------------------------------------------------|
G|---------------------------------------------------------|
D|-0-7/3-0-5-7-8-----------------------------7/3-----------|
A|-0-7/3-0-5-7-8-5---------------------------7/3---------5-|
D|-0-7/3-0-5-7-8-0---------------------------7/3-0-5-7-8-0-|

e|----------------------------------------------------------------------|
B|----------------------------------------------------------------------|
G|----------------------------------------------------------------------|
D|--------------------------------7/3-----------------------------------|
A|--------------------------------7/3---------5-------------------------|
D|--------------------------------7/3-0-5-7-8-0-------------------------|

e|-----------------------------------------------------------|
B|-----------------------------------------------------------|
G|-----------------------------------------------------------|
D|-----7/3---------------------------------------7/3---------|
A|-(5)-7/3---------5-----------------------------7/3-------3-|
D|-(0)-7/3-0-5-7-8-0-----------------------------7/3-0-5-7---|

 Pre-Chorus
e|-0--------------------0-------------------------------------------|
B|-3--------------------5-------------------------------------------|
G|-0--------------------0-------------------------------------------|
D|-3--------------------5-----------------------7---5-0-7/3---------|
A|-1--------------------0-------------5-5-5-5-5-8---7-0-7/3-------3-|
D|------------------------------------0-8-0-7-0---0---0-7/3-0-5-7---|

e|-0-------------------0------------------------------------------|
B|-3-------------------5------------------------------------------|
G|-0-------------------0------------------------------------------|
D|-3-------------------5----------------------7---5-0-7/3---------|
A|-1-------------------0------------5-5-5-5-5-8---7-0-7/3-------3-|
D|----------------------------------0-8-0-7-0---0---0-7/3-0-5-7---|

e|-0-----------------0--------------0--------------0-----------------|
B|-3-----------------5--------------6--------------8-----------------|
G|-0-----------------0--------------0--------------0-----------------|
D|-3-----------------5--------------7--------------7-----------------|
A|-1-----------------0--------------5--------------8-----------------|
D|-------------------------------------------------------------------|

e|-0-------------0----------------------------0-|
B|-3-------------5----------------------------6-|
G|-0-------------0----------------------------7-|
D|-3-------------5----------------7/3-0-5-7-8-7-|
A|-1-------------0----------------7/3-0-5-7-8-5-|
D|--------------------------------7/3-0-5-7-8---|

  Chorus:
e|-0--0-0--0-0--0-0--0-0--0---0--0--0---0--0---0--0---0--0---0---|
B|-6--6-6--6-6--6-6--6-6--6--10--10-10--10-10--10-10--10-10--10--|
G|-7--7-7--7-7--7-7--7-7--7---0--0--0---0--0---0--0---0--0---0---|
D|-7--7-7--7-7--7-7--7-7--7--10--10-10--10-10--10-10--10-10--10--|
A|-5--5-5--5-5--5-5--5-5--5---8--8--8---8--8---8--8---8--8---8---|
D|---------------------------------------------------------------|

e|-0---0--0---0--0---0--0---0--0---0--0--0-0-0-0-0-0-0-|
B|-11--11-11--11-11--11-11--11-11--11-3--3-3-3-3-3-3-5-|
G|-0---0--0---0--0---0--0---0--0---0--0--0-0-0-0-0-0-0-|
D|-12--12-12--12-12--12-12--12-12--12-3--3-3-3-3-3-3-5-|
A|-10--10-10--10-10--10-10--10-10--10-1--1-1-1-1-1-1-0-|
D|-----------------------------------------------------|

e|-0-----------0-|
B|-5-----------6-|
G|-0-----------7-|
D|-5-3-0-5-7-8-7-|
A|-0-3-0-5-7-8-5-|
D|---3-0-5-7-8---|


e|-0--0-0--0-0--0-0--0-0--0---0--0--0---0--0---0--0---0--0---0---|
B|-6--6-6--6-6--6-6--6-6--6--10--10-10--10-10--10-10--10-10--10--|
G|-7--7-7--7-7--7-7--7-7--7---0--0--0---0--0---0--0---0--0---0---|
D|-7--7-7--7-7--7-7--7-7--7--10--10-10--10-10--10-10--10-10--10--|
A|-5--5-5--5-5--5-5--5-5--5---8--8--8---8--8---8--8---8--8---8---|
D|---------------------------------------------------------------|

e|-0--0---0--0--0-0--0-0--0-0-0-0-0-0-0--0---------------|
B|-11-10--10-8--8-5--5-3--3-3-3-3-3-3-3--3---------------|
G|-0--0---0--0--0-0--0-0--0-0-0-0-0-0-0--0---------------|
D|-12-10--10-8--8-5--5-3--3-3-3-3-3-3-3--3---------------|
A|-10-8---8--7--7-3--3-1--1-1-1-1-1-1-1--1-------------5-|
D|-----------------------------------------7-3-0-5-7-8-0-|

  Outro:
e|-----------------------------------------------------------------| X2
B|-----------------------------------------------------------------|
G|-----------------------------------------------------------------|
D|-----------------------------------------------------------------|
A|-----------8-5-7---------------5-----------8-5-7---------------5-|
D|-0-8-0-7-0-------0-7/3-0-5-7-8---0-8-0-7-0-------0-7/3-0-5-7-8---|

e|-----------------------------------------------------------------|
B|-----------------------------------------------------------------|
G|-----------------------------------------------------------------|
D|-----------------------------------------------------------------|
A|-----------8-5-7---------------5-----------8-5-7---------------5-|
D|-0-8-0-7-0-------0-7/3-0-5-7-8---0-8-0-7-0-------0-7/3-0-5-7-8---|

e|-----------------------------------------------------------------|
B|-----------------------------------------------------------------|
G|-----------------------------------------------------------------|
D|-----------------------------------------------------------------|
A|-----------8-5-7---------------5-----------8-5-7---------------5-|
D|-0-8-0-7-0-------0-7/3-0-5-7-8---0-8-0-7-0---------------------0-|

e|-----------------------------------------------------------------| X4
B|-----------------------------------------------------------------|
G|-----------------------------------------------------------------|
D|-----------------------------------------------------------------|
A|-----------8-5-7---------------5-----------8-5-7---------------5-|
D|-0-8-0-7-0-------0-7/3-0-5-7-8---0-8-0-7-0-------0-7/3-0-5-7-8---|

            
            
Suggest correction
Creating personal tab
Creating personal tab
You can edit any tab online and save it as your Personal.

You can edit, replace or remove any tab part or add personal notes – all changes will be seen only by you.

Personal tabs can be accessed anytime from any device, even offline.
Learn more »
comments
print report bad tab
5 comments total. Showing first comments.
0 reply
pyritmann 134 Dec 06, 2007 01:51 PM

good try but im pretty sure its wrong, hes not playing as many chords as you think he is, overcomplicated. he has really
heavy distortion for the song so it sounds like chords. interesting to play though all the same.

0 reply
austin_15 72 Dec 06, 2007 05:25 PM

Actually its 100%....I have the Billy Talent II tab book...idiot.

0 reply
billysgottalent 10 Dec 23, 2007 10:04 AM

thank you, I don't know why otherpeople havent gotten the intro write but you got it lol

guest
You may want to rate the tab now too:
select rating
Wanna post a correction for this tab? Suggest correction