Oops, an error
Loading. Please wait.

Dont Count On The Wicked tab

version 1
version 1

Whole song

Interactive

766 views 1 this week
no commentswrite comment
1 2 3 4 5
x 3
add to favorites
×
Save as Personal and add changes to this tab that will be seen only by you. Learn more ›
×
You can save this tab as Personal to edit and correct it or add notes. All changes will be seen only by you. Learn more »
launch autoscroll
font size
0
reset
how to read this tab
guitar tuner
edit
Autoscroll
slow
fast
+/-
esc
set tempo
stop
[Intro] 

e|---------------------------------------------------------------------------|
B|---------------------------------------------------------------------------|
G|--7--7--12-12-12-12-12-9--------9-9-9-9-10-10------------------------------|
D|--0--0----------------------7-7--------------------------------------------|  3x
A|--0--0---------------------------------------------------------------------|
D|--0--0---------------------------------------------------------------------|

e|------3-3-3-3-3-0----------------------------------------------------------------|
B|-3-3----------------------5-5-5-5-6-6---------8-8-8-8-8-5---------5-5-5-5-6-6----|
G|-3-3--3-3-3-3-3-3---------5-5-5-5-5-5---------7-7-7-7-7-5----7-7--5-5-5-5-5-5----|
D|-3-3--3-3-3-3-3-3----3-3--3-3-3-3-3-3----5-5--5-5-5-5-5-5----7-7--5-5-5-5-5-5----|
A|-1-1--1-1-1-1-1-1----3-3--3-3-3-3-3-3----5-5--5-5-5-5-5-5----7-7--3-3-3-3-3-3----|
D|---------------------3-3--3-3-3-3-3-3----5-5--5-5-5-5-5-5----7-7-----------------|

[Verse]

e|---------------------------------------------------------------------------|
B|---------------------------------------------------------------------------|
G|--7--7--12-12-12-12-12-9---2-2--9-9-9-9-10-10------------------------------|
D|--0-----------------------------0-0-0-0-0--0-------------------------------|  2x
A|---------------------------------------------------------------------------|
D|---------------------------------------------------------------------------|

e|---------------------------------------------------------------------------|
B|---------------------------------------------------------------------------|
G|--7-----------------------------9-9-9-9-10-10------------------------------|
D|--0-----------------------------0-0-0-0-0--0-------------------------------|  5x
A|---------------------------------------------------------------------------|
D|---------------------------------------------------------------------------|


[Pre-Chorus]

e|---------------------------------------------------------------------------|
B|---------------------------------------------------------------------------|
G|--7-7-7-7-7-7-7-7--7-7-7-7-7-7-7-7--7-7-7-7-7-7-7-7--7-7-9-9-9-9-10-10-----|
D|--5-5-5-5-5-5-5-5--3-3-3-3-3-3-3-3--8-8-8-8-8-8-8-8--7-7-7-7-7-7-7--7------|
A|--5-5-5-5-5-5-5-5--3-3-3-3-3-3-3-3--8-8-8-8-8-8-8-8--7-7-7-7-7-7-7--7------|
D|--5-5-5-5-5-5-5-5--3-3-3-3-3-3-3-3--8-8-8-8-8-8-8-8--7-7-7-7-7-7-7--7------|

e|------------------------------------------------------------------------------------------|
B|------------------------------------------------------------------------------------------|
G|--7-7-7-7-7-7-7-7--7-7-7-7-7-7-7-7--7-7-7-7-7-7-7-7--------------9--9--9--9--10-10-10-10--|
D|--5-5-5-5-5-5-5-5--3-3-3-3-3-3-3-3--8-8-8-8-8-8-8-8--10-10-10-10-10-10-10-10-10-10-10-10--|
A|--5-5-5-5-5-5-5-5--3-3-3-3-3-3-3-3--8-8-8-8-8-8-8-8--10-10-10-10-10-10-10-10-10-10-10-10--|
D|--5-5-5-5-5-5-5-5--3-3-3-3-3-3-3-3--8-8-8-8-8-8-8-8--10-10-10-10-10-10-10-10-10-10-10-10--|



[Chorus]

e|------3-3-3-3-3-0----------------------------------------------------------------|
B|-3-3----------------------5-5-5-5-6-6---------8-8-8-8-8-5---------5-5-5-5-6-6----|
G|-3-3--3-3-3-3-3-3---------5-5-5-5-5-5---------7-7-7-7-7-5---------5-5-5-5-5-5----|
D|-3-3--3-3-3-3-3-3----3-3--3-3-3-3-3-3----5-5--5-5-5-5-5-5----0-0--0-0-0-0-0-0----|
A|-1-1--1-1-1-1-1-1----3-3--3-3-3-3-3-3----5-5--5-5-5-5-5-5----0-0--0-0-0-0-0-0----|
D|---------------------3-3--3-3-3-3-3-3----5-5--5-5-5-5-5-5----0-0--0-0-0-0-0-0----|

e|------3-3-3-3-3-0----------------------------------------------------------------|
B|-3-3----------------------5-5-5-5-6-6---------8-8-8-8-8-5---------5-5-5-5-6-6----|
G|-3-3--3-3-3-3-3-3---------5-5-5-5-5-5---------7-7-7-7-7-5----7-7--5-5-5-5-5-5----|
D|-3-3--3-3-3-3-3-3----3-3--3-3-3-3-3-3----5-5--5-5-5-5-5-5----7-7--5-5-5-5-5-5----|
A|-1-1--1-1-1-1-1-1----3-3--3-3-3-3-3-3----5-5--5-5-5-5-5-5----7-7--3-3-3-3-3-3----|
D|---------------------3-3--3-3-3-3-3-3----5-5--5-5-5-5-5-5----7-7-----------------|

[Verse]

e|---------------------------------------------------------------------------|
B|---------------------------------------------------------------------------|
G|--7--7--12-12-12-12-12-9---2-2--9-9-9-9-10-10------------------------------|
D|--0-----------------------------0-0-0-0-0--0-------------------------------|  2x
A|---------------------------------------------------------------------------|
D|---------------------------------------------------------------------------|

e|---------------------------------------------------------------------------|
B|---------------------------------------------------------------------------|
G|--7-----------------------------9-9-9-9-10-10------------------------------|
D|--0-----------------------------0-0-0-0-0--0-------------------------------|  5x
A|---------------------------------------------------------------------------|
D|---------------------------------------------------------------------------|

[Pre-Chorus]

e|---------------------------------------------------------------------------|
B|---------------------------------------------------------------------------|
G|--7-7-7-7-7-7-7-7--7-7-7-7-7-7-7-7--7-7-7-7-7-7-7-7--7-7-9-9-9-9-10-10-----|
D|--5-5-5-5-5-5-5-5--3-3-3-3-3-3-3-3--8-8-8-8-8-8-8-8--7-7-7-7-7-7-7--7------|
A|--5-5-5-5-5-5-5-5--3-3-3-3-3-3-3-3--8-8-8-8-8-8-8-8--7-7-7-7-7-7-7--7------|
D|--5-5-5-5-5-5-5-5--3-3-3-3-3-3-3-3--8-8-8-8-8-8-8-8--7-7-7-7-7-7-7--7------|

e|------------------------------------------------------------------------------------------|
B|------------------------------------------------------------------------------------------|
G|--7-7-7-7-7-7-7-7--7-7-7-7-7-7-7-7--7-7-7-7-7-7-7-7--------------9--9--9--9--10-10-10-10--|
D|--5-5-5-5-5-5-5-5--3-3-3-3-3-3-3-3--8-8-8-8-8-8-8-8--10-10-10-10-10-10-10-10-10-10-10-10--|
A|--5-5-5-5-5-5-5-5--3-3-3-3-3-3-3-3--8-8-8-8-8-8-8-8--10-10-10-10-10-10-10-10-10-10-10-10--|
D|--5-5-5-5-5-5-5-5--3-3-3-3-3-3-3-3--8-8-8-8-8-8-8-8--10-10-10-10-10-10-10-10-10-10-10-10--|

[Chorus] 2x

e|------3-3-3-3-3-0----------------------------------------------------------------|
B|-3-3----------------------5-5-5-5-6-6---------8-8-8-8-8-5---------5-5-5-5-6-6----|
G|-3-3--3-3-3-3-3-3---------5-5-5-5-5-5---------7-7-7-7-7-5---------5-5-5-5-5-5----|
D|-3-3--3-3-3-3-3-3----3-3--3-3-3-3-3-3----5-5--5-5-5-5-5-5----0-0--0-0-0-0-0-0----|
A|-1-1--1-1-1-1-1-1----3-3--3-3-3-3-3-3----5-5--5-5-5-5-5-5----0-0--0-0-0-0-0-0----|
D|---------------------3-3--3-3-3-3-3-3----5-5--5-5-5-5-5-5----0-0--0-0-0-0-0-0----|

e|------3-3-3-3-3-0----------------------------------------------------------------|
B|-3-3----------------------5-5-5-5-6-6---------8-8-8-8-8-5---------5-5-5-5-6-6----|
G|-3-3--3-3-3-3-3-3---------5-5-5-5-5-5---------7-7-7-7-7-5----7-7--5-5-5-5-5-5----|
D|-3-3--3-3-3-3-3-3----3-3--3-3-3-3-3-3----5-5--5-5-5-5-5-5----7-7--5-5-5-5-5-5----|
A|-1-1--1-1-1-1-1-1----3-3--3-3-3-3-3-3----5-5--5-5-5-5-5-5----7-7--3-3-3-3-3-3----|
D|---------------------3-3--3-3-3-3-3-3----5-5--5-5-5-5-5-5----7-7-----------------|

[Bridge]

e|---------------------------------------------------------------------------|
B|---------------------------------------------------------------------------|
G|--7-12--9-7-9-7-5--7-9-10-----7-12--9-7-9-7-5--7-9-10--7-12----------------|
D|--0-0---0-0-0-0-0--0-0-0------0-0---0-0-0-0-0--0-0-0---0-0-----------------|  2x
A|---------------------------------------------------------------------------|
D|---------------------------------------------------------------------------|

e|---------------------------------------------------------------------------|
B|---------------------------------------------------------------------------|
G|--7-7-7-7-7-7-7-7--7-7-7-7-7-7-7-7--7-7-7-7-7-7-7-7--7-7-9-9-9-9-10-10-----|
D|--5-5-5-5-5-5-5-5--3-3-3-3-3-3-3-3--8-8-8-8-8-8-8-8--7-7-7-7-7-7-7--7------|
A|--5-5-5-5-5-5-5-5--3-3-3-3-3-3-3-3--8-8-8-8-8-8-8-8--7-7-7-7-7-7-7--7------|
D|--5-5-5-5-5-5-5-5--3-3-3-3-3-3-3-3--8-8-8-8-8-8-8-8--7-7-7-7-7-7-7--7------|

e|------------------------------------------------------------------------------------------|
B|------------------------------------------------------------------------------------------|
G|--7-7-7-7-7-7-7-7--7-7-7-7-7-7-7-7--7-7-7-7-7-7-7-7--------------9--9--9--9--10-10-10-10--|
D|--5-5-5-5-5-5-5-5--3-3-3-3-3-3-3-3--8-8-8-8-8-8-8-8--10-10-10-10-10-10-10-10-10-10-10-10--|
A|--5-5-5-5-5-5-5-5--3-3-3-3-3-3-3-3--8-8-8-8-8-8-8-8--10-10-10-10-10-10-10-10-10-10-10-10--|
D|--5-5-5-5-5-5-5-5--3-3-3-3-3-3-3-3--8-8-8-8-8-8-8-8--10-10-10-10-10-10-10-10-10-10-10-10--|

e|---------------------------------------------------------------------------|
B|---------------------------------------------------------------------------|
G|--7--7--12-12-12-12-12-9--------9-9-9-9-10-10------------------------------|
D|--0--0----------------------7-7--------------------------------------------| 
A|--0--0---------------------------------------------------------------------|
D|--0--0---------------------------------------------------------------------|

[Chorus] 3x

e|------3-3-3-3-3-0----------------------------------------------------------------|
B|-3-3----------------------5-5-5-5-6-6---------8-8-8-8-8-5---------5-5-5-5-6-6----|
G|-3-3--3-3-3-3-3-3---------5-5-5-5-5-5---------7-7-7-7-7-5---------5-5-5-5-5-5----|
D|-3-3--3-3-3-3-3-3----3-3--3-3-3-3-3-3----5-5--5-5-5-5-5-5----0-0--0-0-0-0-0-0----|
A|-1-1--1-1-1-1-1-1----3-3--3-3-3-3-3-3----5-5--5-5-5-5-5-5----0-0--0-0-0-0-0-0----|
D|---------------------3-3--3-3-3-3-3-3----5-5--5-5-5-5-5-5----0-0--0-0-0-0-0-0----|

e|------3-3-3-3-3-0--------------------------------------------------------------|---|
B|-3-3----------------------5-5-5-5-6-6---------8-8-8-8-8-5---------5-5-5-5-6-6--|---|
G|-3-3--3-3-3-3-3-3---------5-5-5-5-5-5---------7-7-7-7-7-5----7-7--5-5-5-5-5-5--|---|
D|-3-3--3-3-3-3-3-3----3-3--3-3-3-3-3-3----5-5--5-5-5-5-5-5----7-7--5-5-5-5-5-5--|-0-|
A|-1-1--1-1-1-1-1-1----3-3--3-3-3-3-3-3----5-5--5-5-5-5-5-5----7-7--3-3-3-3-3-3--|-0-|
D|---------------------3-3--3-3-3-3-3-3----5-5--5-5-5-5-5-5----7-7---------------|-0-|






************************************

| x   Dead note
| g   Grace note
| (n) Ghost note
| h   Hammer-on
| p   Pull-off
| r   Release
| >   Accented note
| t   Tapping
| b   Bend
| br  Bend release
| pb  Pre-bend
| pbr Pre-bend release
| /   Slide up
| \   Slide down
| ~   Vibrato
| s   Slap
| P   Pop
| PM  Palm mute
| TR  Trill
| N   Tremolo

************************************

            
            
Suggest correction
Creating personal tab
Creating personal tab
You can edit any tab online and save it as your Personal.

You can edit, replace or remove any tab part or add personal notes – all changes will be seen only by you.

Personal tabs can be accessed anytime from any device, even offline.
Learn more »
Give kudos to tab author, rate the tab!
1 2 3 4 5
comments
print report bad tab
guest
You may want to rate the tab now too:
select rating
Wanna post a correction for this tab? Suggest correction