Oops, an error
Loading. Please wait.

Kingdom Of Zod tab

version 1
version 1

Whole song

Interactive

9,824 views 24 this week
4 commentsread comments
1 2 3 4 5
x 11
add to favorites
×
Save as Personal and add changes to this tab that will be seen only by you. Learn more ›
×
You can save this tab as Personal to edit and correct it or add notes. All changes will be seen only by you. Learn more »
launch autoscroll
font size
0
reset
how to read this tab
guitar tuner
edit
Autoscroll
slow
fast
+/-
esc
set tempo
stop
Tabbed by: Carlito-T
Soundcloud: Carlito-T

 Hi, it's my transcription by ears of the new BT song, it's not out of tune but Ian D'Sa 
may play it a different way. I wish you will enjoy playing it, thanks for watching you can watch the
official audio to learn the rhythm or go to my soundcloud if you want: https://soundcloud.com/carlito-t

Link to the audio: https://www.youtube.com/watch?v=EYSoZ4BEsL8
   
Tuning: DADGBE

 Intro

e|---------------------------------------------------------------------------|
B|---------------------------------------------------------------------------|
G|--------6~-------7b---------6~-------7b------------------------------------|  X2
D|-4--4-4----4---4-----4--4-4----4---4---------------------------------------|
A|-4--4-4----4---4-----4--4-4----4---4---------------------------------------|
D|-4--4-4----4---4-----4--4-4----4---4---------------------------------------|

e|---------------------------------------------------------------------------|
B|---------------------------------------------------------------------------|
G|--------6~-------7b---------4~------------------6~-------7b---------6~-----|
D|-7--7-7----7---7-----2--2-2----2---2--6b-4--4-4----4---4-----4--4-4----4---|
A|-7--7-7----7---7-----2--2-2----2---2-----4--4-4----4---4-----4--4-4----4---|
D|-7--7-7----7---7-----2--2-2----2---2-----4--4-4----4---4-----4--4-4----4---|

 Verse

e|---------------------------------------------------------------------------|
B|--------7--------7----------7----------------------------------------------|
G|--------6~-------7b---------6~---------------------------------------------|  X2
D|-4--4-4----4---4-----4--4-4----4---4---------------------------------------|
A|-4--4-4----4---4-----4--4-4----4---4---------------------------------------|
D|-4--4-4----4---4-----4--4-4----4---4---------------------------------------|

e|---------------------------------------------------------------------------|
B|--------5-------------------5-------------------7--------7----------7------|
G|--------6~-------7b---------4~------------------6~-------7b---------6~-----|
D|-7--7-7----7---7-----2--2-2----2---2-----4--4-4----4---4-----4--4-4----4---|
A|-7--7-7----7---7-----2--2-2----2---2-----4--4-4----4---4-----4--4-4----4---|
D|-7--7-7----7---7-----2--2-2----2---2-----4--4-4----4---4-----4--4-4----4---|

 Post-Chorus
e|------------------------------------------2-2--2--2-2--2--2-2-2-2---------------|
B|--------5-------------------5-------------2-2--2--2-2--2--2-2-2-2---------------|
G|--------6~-------7b---------4~------------2-2--2--2-2--2--2-2-2-2---------------|
D|-7--7-7----7---7-----2--2-2----2---2--6b--0-0-----0-0-----0-0-0-0---7-9--7--7-2-|
A|-7--7-7----7---7-----2--2-2----2---2------0-0-----0-0-----0-0-0-0---7-9--7--7-2-|
E|-7--7-7----7---7-----2--2-2----2---2------0-0-----0-0-----0-0-0-0---7-9--7--7-2-|

 Chorus
e|-----4-----------5---------------2--------2--------2-----------------------|
B|-----7-----------7---------------2--------2--------2-----------------------|
G|-----6--X15------6--X15----------2--------2--------2-----------------------| X2
D|-----4-----------5-----------0-0------0-0------0-0----------7-9--7--7-2----|
A|-----4----(7)----5-----(7)---0-0------0-0------0-0----------7-9--7--7-2----|
D|-----4-----7-----5------7----0-0------0-0------0-0----------7-9--7--7-2----|

e|---------------------------------------------------------------------------|
B|--------7--------7----------7--------7-------------------------------------|
G|--------6~-------7b---------6~-------7b------------------------------------| X2
D|-4--4-4----4---4-----4--4-4----4---4---------------------------------------|
A|-4--4-4----4---4-----4--4-4----4---4---------------------------------------|
D|-4--4-4----4---4-----4--4-4----4---4---------------------------------------|

 Verse

e|---------------------------------------------------------------------------|
B|--------7--------7----------7--------7-------------------------------------|
G|--------6~-------7b---------6~-------7b------------------------------------| X2
D|-4--4-4----4---4-----4--4-4----4---4---------------------------------------|
A|-4--4-4----4---4-----4--4-4----4---4---------------------------------------|
D|-4--4-4----4---4-----4--4-4----4---4---------------------------------------|

 Post-Chorus

e|------------------------------------------2-2--2--2-2--2--2-2-2-2---------------|
B|--------5-------------------5-------------2-2--2--2-2--2--2-2-2-2---------------|
G|--------6~-------7b---------4~------------2-2--2--2-2--2--2-2-2-2---------------|
D|-7--7-7----7---7-----2--2-2----2---2--6b--0-0-----0-0-----0-0-0-0---7-9--7--7-2-|
A|-7--7-7----7---7-----2--2-2----2---2------0-0-----0-0-----0-0-0-0---7-9--7--7-2-|
E|-7--7-7----7---7-----2--2-2----2---2------0-0-----0-0-----0-0-0-0---7-9--7--7-2-|

 Chorus

e|-----4-----------5---------------2--------2--------2-----------------------|
B|-----7-----------7---------------2--------2--------2-----------------------|
G|-----6--X15------6--X15----------2--------2--------2-----------------------| X4
D|-----4-----------5-----------0-0------0-0------0-0----------7-9--7--7-2----|
A|-----4----(7)----5-----(7)---0-0------0-0------0-0----------7-9--7--7-2----|
D|-----4-----7-----5------7----0-0------0-0------0-0----------7-9--7--7-2----|

    Solo

Rhythmic Guitar
e|---------------------------------------------------------------------------|
B|---------------------------------------------------------------------------|
G|---------------------------------------------------------------------------| X2
D|-----4--0-0-0--0-4--0-0-0--0-----------------------------------------------|
A|-----4--0-0-0--0-4--0-0-0--0-----------------------------------------------|
D|-----4--0-0-0--0-4--0-0-0--0-----------------------------------------------|

e|---------------------------------------------------------------------------|
B|---------------------------------------------------------------------------|
G|---------------------------------------------------------------------------|
D|--7-7-7-7-7-7-7-7-1-1-1-1-1-1-1-1-0-0-0-0-0-0-0-0-9-9-9-9-9-9-9-9----------|
A|--7-7-7-7-7-7-7-7-1-1-1-1-1-1-1-1-0-0-0-0-0-0-0-0-9-9-9-9-9-9-9-9----------|
D|--7-7-7-7-7-7-7-7-1-1-1-1-1-1-1-1-0-0-0-0-0-0-0-0-9-9-9-9-9-9-9-9----------|

e|---------------------------------------------------------------------------|
B|---------------------------------------------------------------------------|
G|---------------------------------------------------------------------------| 
D|-----4--0-0-0--0-4--0-0-0--0-----------------------------------------------|
A|-----4--0-0-0--0-4--0-0-0--0-----------------------------------------------|
D|-----4--0-0-0--0-4--0-0-0--0-----------------------------------------------|

e|---------------------------------------------------------------------------|
B|---------------------------------------------------------------------------|
G|---------------------------------------------------------------------------|
D|--7-7-7-7-7-7-7-7-1-1-1-1-1-1-1-1-0-0-0-0-0-0-0-0-9-9-9-9-9-9-9-9----------|
A|--7-7-7-7-7-7-7-7-1-1-1-1-1-1-1-1-0-0-0-0-0-0-0-0-9-9-9-9-9-9-9-9----------|
D|--7-7-7-7-7-7-7-7-1-1-1-1-1-1-1-1-0-0-0-0-0-0-0-0-9-9-9-9-9-9-9-9----------|

Solo Guitar
e|---------------------------------------------------------------------------|
B|---------------------------------------------------------------------------|
G|--------------9-9-11\--------------9-9-11\---------------------------------| X2
D|---------9-11-----------------9-11-----------------------------------------|
A|----9-12-----------------9-12----------------------------------------------|
D|---------------------------------------------------------------------------|

e|--------------------------------------------------------------------------------|
B|--------------------------------------------------------------------------------|
G|--------------------------------------------------------------------------------|
D|-------------------------------------------------6-6-6-6-7-7-7-7-/12-12-12-12\--|
A|-12-12-12-12-12-12-12-12-6-6-6-6-8-8-8-8-9-9-9-9--------------------------------|
D|--------------------------------------------------------------------------------|

e|---------------------------------------------------------------------------|
B|---------------------------------------------------------------------------|
G|--------------9-9-11\--------------9-9-11\---------------------------------|
D|---------9-11-----------------9-11-----------------------------------------|
A|----9-12-----------------9-12----------------------------------------------|
D|---------------------------------------------------------------------------|

e|--------------------------------------------------------------------------------|
B|--------------------------------------------------------------------------------|
G|--------------------------------------------------------------------------------|
D|-------------------------------------------------6-6-6-6-7-7-7-7-/12------------|
A|-12-12-12-12-12-12-12-12-6-6-6-6-8-8-8-8-9-9-9-9--------------------------------|
D|--------------------------------------------------------------------------------|

Chorus

e|-----4-----------5---------------2--------2--------2-----------------------|
B|-----7-----------7---------------2--------2--------2-----------------------|
G|-----6--X15------6--X15----------2--------2--------2-----------------------| X4
D|-----4-----------5-----------0-0------0-0------0-0----------7-9--7--7-2----|
A|-----4----(7)----5-----(7)---0-0------0-0------0-0----------7-9--7--7-2----|
D|-----4-----7-----5------7----0-0------0-0------0-0----------7-9--7--7-2----|

e|---------------------------------------------------------------------------|
B|--------7--------7----------7--------7----------7--------7----------7------|
G|--------6~-------7b---------6~-------7b---------6~-------7b---------6~-----|  
D|-4--4-4----4---4-----4--4-4----4---4-----4--4-4----4---4-----4--4-4----4---|
A|-4--4-4----4---4-----4--4-4----4---4-----4--4-4----4---4-----4--4-4----4---|
D|-4--4-4----4---4-----4--4-4----4---4-----4--4-4----4---4-----4--4-4----4---|

e|---------------------------------------------------------------------------|
B|---------------------------------------------------------------------------|
G|---------------------------------------------------------------------------|
D|---------------------------------------------------------------------------|
A|---------------------------------------------------------------------------|
D|---------------------------------------------------------------------------|

************************************

| /   slide up
| \   slide down
| h   hammer-on
| p   pull-off
| ~   vibrato
| +   harmonic
| x   Mute note
| b   Bend
| pb  Pre-bend
| br  Bend release
| pbr Pre-bend release
| brb Bend release bend

************************************

            
            
Suggest correction
Creating personal tab
Creating personal tab
You can edit any tab online and save it as your Personal.

You can edit, replace or remove any tab part or add personal notes – all changes will be seen only by you.

Personal tabs can be accessed anytime from any device, even offline.
Learn more »
comments
print report bad tab
4 comments total. Showing first comments.
+1 reply
Pen-Cap-Chew 202 Dec 16, 2014 05:09 PM

You can just say it's drop-D tuning. All of it looks good though.

0 reply
hellhorseproduc 10 Aug 21, 2015 02:47 PM

nice, tab
seems pretty accurate

0 reply
mitchell.assen 10 Aug 21, 2015 03:19 PM

it does seem accurate for the most part, however from watching ian play it at a show, i've noticed he plays the solo a lot differently, and the chorus has always been a bit iffy with me

guest
You may want to rate the tab now too:
select rating
Wanna post a correction for this tab? Suggest correction