Oops, an error
Loading. Please wait.

Navy Song intro tab

version 1
version 1

Intro

Whole song

13,504 views 1 this week
1 commentread comment
1 2 3 4 5
x 9
add to favorites
×
Save as Personal and add changes to this tab that will be seen only by you. Learn more ›
×
You can save this tab as Personal to edit and correct it or add notes. All changes will be seen only by you. Learn more »
launch autoscroll
font size
0
reset
how to read this tab
guitar tuner
edit
Autoscroll
slow
fast
+/-
esc
set tempo
stop
Artist: Billy Talent
Song: The Navy Song
Tabbed by: Zuka (zuka4077@hotmail.com)

Great song. However at the moment I only tabbed the intro, due to the 
lazyness factor. Drop D tuning...

Intro:
e|--------------------12-----10----------------------|
B|------10----12-------------------12-----10-----12--|
G|-----9-----9------9------9------9-----9-------9----|
D|-10------10-----10-----10-----10----10------10-----|
A|---------------------------------------------------|
D|---------------------------------------------------|

e|--------------8----7---------------|
B|-----7---8-------------8---7---7---|
G|----5---5----5----5---5---5---5----|1st Ending
D|---7---7----7----7---7---7---7-----|
A|-----------------------------------|
D|-----------------------------------|

e|--------------8----7------------------|
B|-----7---8-------------8--7777777-----|
G|----5---5----5----5---5---5555555-----|2nd Ending
D|---7---7----7----7---7----7777777-----|
A|--------------------------------------|
D|--------------------------------------|

            
            
Suggest correction
Creating personal tab
Creating personal tab
You can edit any tab online and save it as your Personal.

You can edit, replace or remove any tab part or add personal notes – all changes will be seen only by you.

Personal tabs can be accessed anytime from any device, even offline.
Learn more »
comments
print report bad tab
1 comment total.
0 reply
monachima505 187 Jul 07, 2006 08:40 PM

When I first heard the song, I thought it would be hammering off the high E string constantly like in some songs, but this way works better.. good job......

guest
You may want to rate the tab now too:
select rating
Wanna post a correction for this tab? Suggest correction