Oops, an error
Loading. Please wait.
We have an official Red Flag tab made by UG professional guitarists. Check out the tab »
×
18,864 views 6 this week
3 commentsread comments
1 2 3 4 5
x 4
add to favorites
×
Save as Personal and add changes to this tab that will be seen only by you. Learn more ›
×
You can save this tab as Personal to edit and correct it or add notes. All changes will be seen only by you. Learn more »
launch autoscroll
font size
0
reset
how to read this tab
guitar tuner
edit
Autoscroll
slow
fast
+/-
esc
set tempo
stop
#----------------------------------PLEASE NOTE---------------------------------#
#This file is the author's own work and represents their interpretation of the #
#song. You may only use this file for private study, scholarship, or research. #
#------------------------------------------------------------------------------##


Gtr I (D A D G B E) - 'Untitled'
Gtr II (D A D G B E) - 'Untitled'

 Intro
  Red Flag Q=185
 4/4
  Gtr I
  Wx10
|---------|
|---------|
|---------|
|---------|
|---------|
|---------|


 1st Chorus
  E E E E E E E E   Q  E Q  E E E   E E E E E E E E   Q  E Q  E E E
|-----------------|---------------|-----------------|---------------|
|-----------------|---------------|-----------------|---------------|
|-2-2-2-2-2-2-2-2-|-5--5-5--5-5-5-|-----------------|---------------|
|-2-2-2-2-2-2-2-2-|-5--5-5--5-5-5-|-9-9-9-9-9-9-9-9-|-7--7-7--7-7-7-|
|-0-0-0-0-0-0-0-0-|-3--0-3--0-3-0-|-5-5-5-5-5-5-5-5-|-3--0-3--0-3-0-|
|-----------------|---------------|-5-5-5-5-5-5-5-5-|-3--0-3--0-3-0-|


  E E E E E E E E   Q  E Q  E E E   E E E E E E E E   Q  E Q  E E E
|-----------------|---------------|-----------------|---------------|
|-----------------|---------------|-----------------|---------------|
|-5-5-5-5-5-5-5-5-|---------------|-----------------|---------------|
|-5-5-5-5-5-5-5-5-|-9--9-9--9-9-9-|-6-6-6-6-6-6-6-6-|-9--9-9--9-9-9-|
|-3-3-3-3-3-3-3-3-|-5--0-5--0-5-0-|-2-2-2-2-2-2-2-2-|-7--0-7--0-7-0-|
|-----------------|-5--0-5--0-5-0-|-2-2-2-2-2-2-2-2-|-6--0-6--0-6-0-|


 1st Verse
   E  E  E  E H      W          E E E E H      W           E  E  E  E H
|--8--8--8--8------|----------|-7-7-7-7------|----------|--8--8--8--8------|
|-10-10-10-10------|----------|-9-9-9-9------|----------|-10-10-10-10------|
|--9--9--9--9------|----------|-7-7-7-7------|----------|--9--9--9--9------|
|------------------|----------|--------------|----------|------------------|
|------------------|----------|--------------|----------|------------------|
|------------------|----------|--------------|----------|------------------|


  W          E E E E Q  E E   E E E E E E E E
|----------|-7-7-7-7----4-4-|-4-4-4---5---7---|
|----------|-9-9-9-9----3-3-|-3-3-3---5---9---|
|----------|-7-7-7-7----4-4-|-4-4-4---5---7---|
|----------|----------------|-----------------|
|----------|----------------|-----------------|
|----------|----------------|-----------------|


   E  E  E  E Q   E  E    E  E  E E E E E E
|--8--8--8--8-----8--8-|--8--8--8---7---5---|
|-10-10-10-10----10-10-|-10-10-10---6---5---|
|--9--9--9--9-----9--9-|--9--9--9---7---5---|
|----------------------|--------------------|
|----------------------|--------------------|
|----------------------|--------------------|


  E E E E Q  E E   E   E  E E  E E  E E
|-7-7-7-7----4-4-|-4-/10-10----8----7---|
|-9-9-9-9----3-3-|-3--/9--9----9----9---|
|-7-7-7-7----4-4-|-4--/8--8---10---10---|
|----------------|----------------------|
|----------------|----------------------|
|----------------|----------------------|


   E  E  E  E Q   E  E    E  E  E E E E E E   E E E E Q  E E   E E E E E E E E
|--8--8--8--8-----8--8-|--8--8--8---7---5---|-7-7-7-7----4-4-|-4-4-4---5---7---|
|-10-10-10-10----10-10-|-10-10-10---6---5---|-9-9-9-9----3-3-|-3-3-3---5---9---|
|--9--9--9--9-----9--9-|--9--9--9---7---5---|-7-7-7-7----4-4-|-4-4-4---5---7---|
|----------------------|--------------------|----------------|-----------------|
|----------------------|--------------------|----------------|-----------------|
|----------------------|--------------------|----------------|-----------------|


 Pre Chorus
  W          W          E E E E E E E E   W
|-5--------|-5--------|-----------------|-0----|
|-6--------|-6--------|-3-3-3-3-3-3-3---|-1----|
|-5--------|-7--------|-4-4-4-5-5-5-4---|-2----|
|----------|----------|-----------------|------|
|----------|----------|-----------------|------|
|----------|----------|-----------------|------|


  W          W          E E E E E E E E   W
|-5--------|-5--------|-----------------|------|
|-6--------|-6--------|-3-3-3-3-3-3-3---|-5----|
|-5--------|-7--------|-4-4-4-5-5-5-4---|-4----|
|----------|----------|-----------------|-2----|
|----------|----------|-----------------|------|
|----------|----------|-----------------|------|


   2nd Chorus
    E E E E E E E E   Q  E Q  E E E   E E E E E E E E   Q  E Q  E E E
||------------------|---------------|-----------------|----------------|
||o-----------------|---------------|-----------------|----------------|
||--2-2-2-2-2-2-2-2-|-5--5-5--5-5-5-|-----------------|----------------|
||--2-2-2-2-2-2-2-2-|-5--5-5--5-5-5-|-9-9-9-9-9-9-9-9-|-7--7-7--7-7-7--|
||o-0-0-0-0-0-0-0-0-|-3--0-3--0-3-0-|-5-5-5-5-5-5-5-5-|-3--0-3--0-3-0--|
||------------------|---------------|-5-5-5-5-5-5-5-5-|-3--0-3--0-3-0--|


  E E E E E E E E   Q  E Q  E E E   E E E E E E E E   Q  E Q  E E E
|-----------------|---------------|-----------------|----------------||
|-----------------|---------------|-----------------|---------------o||
|-5-5-5-5-5-5-5-5-|---------------|-----------------|----------------||
|-5-5-5-5-5-5-5-5-|-9--9-9--9-9-9-|-6-6-6-6-6-6-6-6-|-9--9-9--9-9-9--||
|-3-3-3-3-3-3-3-3-|-5--0-5--0-5-0-|-2-2-2-2-2-2-2-2-|-7--0-7--0-7-0-o||
|-----------------|-5--0-5--0-5-0-|-2-2-2-2-2-2-2-2-|-6--0-6--0-6-0--||


   2nd Verse
     E  E  E  E Q   E  E    E  E  E E E E E E
||---8--8--8--8-----8--8-|--8--8--8---7---5---|
||o-10-10-10-10----10-10-|-10-10-10---6---5---|
||---9--9--9--9-----9--9-|--9--9--9---7---5---|
||-----------------------|--------------------|
||o----------------------|--------------------|
||-----------------------|--------------------|


  E E E E Q  E E   E   E  E E  E E  E E
|-7-7-7-7----4-4-|-4-/10-10----8----7----|
|-9-9-9-9----3-3-|-3--/9--9----9----9----|
|-7-7-7-7----4-4-|-4--/8--8---10---10----|
|----------------|-----------------------|
|----------------|-----------------------|
|----------------|-----------------------|


   E  E  E  E Q   E  E    E  E  E E E E E E
|--8--8--8--8-----8--8-|--8--8--8---7---5---|
|-10-10-10-10----10-10-|-10-10-10---6---5---|
|--9--9--9--9-----9--9-|--9--9--9---7---5---|
|----------------------|--------------------|
|----------------------|--------------------|
|----------------------|--------------------|


  E E E E Q  E E   E E E E E E E E
|-7-7-7-7----4-4-|-4-4-4---5---7----||
|-9-9-9-9----3-3-|-3-3-3---5---9---o||
|-7-7-7-7----4-4-|-4-4-4---5---7----||
|----------------|------------------||
|----------------|-----------------o||
|----------------|------------------||


 Pre Chorus
  W          W          E E E E E E E E   W
|-5--------|-5--------|-----------------|-0----|
|-6--------|-6--------|-3-3-3-3-3-3-3---|-1----|
|-5--------|-7--------|-4-4-4-5-5-5-4---|-2----|
|----------|----------|-----------------|------|
|----------|----------|-----------------|------|
|----------|----------|-----------------|------|


  W          W          E E E E E E E E   W
|-5--------|-5--------|-----------------|------|
|-6--------|-6--------|-3-3-3-3-3-3-3---|-5----|
|-5--------|-7--------|-4-4-4-5-5-5-4---|-4----|
|----------|----------|-----------------|-2----|
|----------|----------|-----------------|------|
|----------|----------|-----------------|------|


   3rd Chorus
    E E E E E E E E   Q  E Q  E E E   E E E E E E E E   Q  E Q  E E E
||------------------|---------------|-----------------|----------------|
||o-----------------|---------------|-----------------|----------------|
||--2-2-2-2-2-2-2-2-|-5--5-5--5-5-5-|-----------------|----------------|
||--2-2-2-2-2-2-2-2-|-5--5-5--5-5-5-|-9-9-9-9-9-9-9-9-|-7--7-7--7-7-7--|
||o-0-0-0-0-0-0-0-0-|-3--0-3--0-3-0-|-5-5-5-5-5-5-5-5-|-3--0-3--0-3-0--|
||------------------|---------------|-5-5-5-5-5-5-5-5-|-3--0-3--0-3-0--|


  E E E E E E E E   Q  E Q  E E E   E E E E E E E E   Q  E Q  E E E
|-----------------|---------------|-----------------|----------------||
|-----------------|---------------|-----------------|---------------o||
|-5-5-5-5-5-5-5-5-|---------------|-----------------|----------------||
|-5-5-5-5-5-5-5-5-|-9--9-9--9-9-9-|-6-6-6-6-6-6-6-6-|-9--9-9--9-9-9--||
|-3-3-3-3-3-3-3-3-|-5--0-5--0-5-0-|-2-2-2-2-2-2-2-2-|-7--0-7--0-7-0-o||
|-----------------|-5--0-5--0-5-0-|-2-2-2-2-2-2-2-2-|-6--0-6--0-6-0--||


   Bridge
    E E E E E E E E   E E E E E E E E   E E E E E E E E   E E E E E E E E   4x
||--------0-0-0-----|-----------------|-5-5---8-8-8-5-0-|-5-5---8-8-8-5-0---||
||o-1-1---1-1-1-1-0-|-3-3---3-3-3-3-0-|-6-6---6-6-6-6-0-|-6-6---6-6-6-6-0--o||
||--2-2---------2-0-|-4-4---5-5-5-4-0-|-7-7---7-7-7-7-0-|-5-5---5-5-5-5-0---||
||------------------|-----------------|-----------------|-------------------||
||o-----------------|-----------------|-----------------|------------------o||
||------------------|-----------------|-----------------|-------------------||


    E E E E E E E E   E E E E E E E E   E E E E E E E E   E E E E E E E E
||--------0-0-0-----|-----------------|-5-5-5-8-8-8-5-0-|-5-5-5-8-8-8-5-0---||
||o-1-1-1-1-1-1-1-0-|-3-3-3-3-3-3-3-0-|-6-6-6-6-6-6-6-0-|-6-6-6-6-6-6-6-0--o||
||--2-2-2-------2-0-|-4-4-4-5-5-5-4-0-|-7-7-7-7-7-7-7-0-|-5-5-5-5-5-5-5-0---||
||------------------|-----------------|-----------------|-------------------||
||o-----------------|-----------------|-----------------|------------------o||
||------------------|-----------------|-----------------|-------------------||


 4th Chorus, No Guitar
  E  H    Q.     Wx9
|--------------|--------|
|-5\-----------|--------|
|-5\-----------|--------|
|-7\-----------|--------|
|-7\-----------|--------|
|-7\-----------|--------|


   5th Chorus
    E E E E E E E E   Q  E Q  E E E   E E E E E E E E   Q  E Q  E E E
||------------------|---------------|-----------------|----------------|
||o-----------------|---------------|-----------------|----------------|
||--2-2-2-2-2-2-2-2-|-5--5-5--5-5-5-|-----------------|----------------|
||--2-2-2-2-2-2-2-2-|-5--5-5--5-5-5-|-9-9-9-9-9-9-9-9-|-7--7-7--7-7-7--|
||o-0-0-0-0-0-0-0-0-|-3--0-3--0-3-0-|-5-5-5-5-5-5-5-5-|-3--0-3--0-3-0--|
||------------------|---------------|-5-5-5-5-5-5-5-5-|-3--0-3--0-3-0--|


  E E E E E E E E   Q  E Q  E E E   E E E E E E E E   Q  E Q  E E E
|-----------------|---------------|-----------------|----------------||
|-----------------|---------------|-----------------|---------------o||
|-5-5-5-5-5-5-5-5-|---------------|-----------------|----------------||
|-5-5-5-5-5-5-5-5-|-9--9-9--9-9-9-|-6-6-6-6-6-6-6-6-|-9--9-9--9-9-9--||
|-3-3-3-3-3-3-3-3-|-5--0-5--0-5-0-|-2-2-2-2-2-2-2-2-|-7--0-7--0-7-0-o||
|-----------------|-5--0-5--0-5-0-|-2-2-2-2-2-2-2-2-|-6--0-6--0-6-0--||


 Outro
   E  E  E  E H
|--8--8--8--8------|
|-10-10-10-10------|
|--9--9--9--9------|
|------------------|
|------------------|
|------------------|


Duration Legend
---------------
W - whole; H - half; Q - quarter; E - 8th; S - 16th; T - 32nd; X - 64th; a - acciaccatura
+ - note tied to previous; . - note dotted; .. - note double dotted
Uncapitalized letters represent notes that are staccato (1/2 duration)
Irregular groupings are notated above the duration line
Duration letters will always appear directly above the note/fret number it represents the
duration for.  Duration letters with no fret number below them represent rests.  Multi-
bar rests are notated in the form Wxn, where n is the number of bars to rest for.  Low
melody durations appear below the staff

Tablature Legend
----------------
 h   - hammer-on
 p   - pull-off
 b   - bend
 pb  - pre-bend
 r   - bend release (if no number after the r, then release immediately)
 /\  - slide into or out of (from/to "nowhere")
 s   - legato slide
 S   - shift slide
  - natural harmonic
[n]  - artificial harmonic
n(n) - tapped harmonic
 ~   - vibrato
 tr  - trill
 T   - tap
 TP  - trem. picking
 PM  - palm muting
\n/  - tremolo bar dip; n = amount to dip
 \n  - tremolo bar down
 n/  - tremolo bar up
/n\  - tremolo bar inverted dip
 =   - hold bend; also acts as connecting device for hammers/pulls
 <>  - volume swell (louder/softer)
 x   - on rhythm slash represents muted slash
 o   - on rhythm slash represents single note slash

Misc Legend
-----------
 |  - bar
||  - double bar
||o - repeat start
o|| - repeat end
*|  - double bar (ending)
 :  - bar (freetime)
 $  - Segno
 &  - Coda
Tempo markers -  = BPM(8/16=s8/s16), where s8 = swing 8ths, s16 = swing 16ths


***************************************************************************************
* Generated using Power Tab Editor by Brad Larsen - http://powertab.guitarnetwork.org *
***************************************************************************************

            
            
Suggest correction
Creating personal tab
Creating personal tab
You can edit any tab online and save it as your Personal.

You can edit, replace or remove any tab part or add personal notes – all changes will be seen only by you.

Personal tabs can be accessed anytime from any device, even offline.
Learn more »
comments
print report bad tab
3 comments total.
0 reply
Zuka 403 Feb 08, 2007 01:40 PM

5 stars. About time someone tabbed up this correctly. Excellent job!

0 reply
JonnyTalent 52 Mar 25, 2007 01:55 AM

VERY NICEEEE

0 reply
dudester410 125 Jan 07, 2008 10:28 AM

this tab is all wrong, billy talent only have 1 guitarist, one bassist, one vocalist and 1 drummer, not 2 guitarists, 3*
( most of it is good, but should be one guitar, and 1* for the effort).

guest
You may want to rate the tab now too:
select rating
Wanna post a correction for this tab? Suggest correction