Oops, an error
Loading. Please wait.
We have an official Saint Veronika tab made by UG professional guitarists. Check out the tab »
×
12,644 views 15 this week
2 commentsread comments
1 2 3 4 5
x 18
add to favorites
×
Save as Personal and add changes to this tab that will be seen only by you. Learn more ›
×
You can save this tab as Personal to edit and correct it or add notes. All changes will be seen only by you. Learn more »
launch autoscroll
font size
0
reset
guitar tuner
backing track
0:00
0:00
edit
Autoscroll
slow
fast
+/-
esc
set tempo
stop
Saint Veronika - Billy Talent

Tuning: Drop D


Intro: (19 x)
G|----------|
D|----------|
A|--555555--|
D|----------|

Then play:
G|-----------|
D|------7777-|
A|-5555------|
D|-----------|


Verse:
G|------------------------------------------------------|
D|------------------------------------------------------|
A|------------------------------------------------------|
D|-0000000000-33-55-777777777-55555555-33333333-7777-88-|
 "They found an empty bottle"...

G|------------------------------------------------------|
D|------------------------------------------------------|
A|------------------------------------------------------|
D|-0000000000-33-55-777777777-55555555-33333333-7-7-7-7-|
  "She was sick and tired"...


Chorus:
G|------------------------------------------------------------------------|
D|------------------------------------------------------------------------|
A|-11111111-000000000-------------------00000000-44444444-----------------|
D|--------------------55555555-33333333-------------------0-0-0-0-222-333-|
  "Veronika, Saint Veronika".....

G|------------------------------------------------------------------------|
D|------------------------------------------------------------------------|
A|-11111111-000000000-------------------00000000-44444444-----------------|
D|--------------------55555555-33333333-------------------0-0-0-0-222-333-|
  "So be strong enough"....


Intro (3x)
G|----------|
D|----------|
A|--555555--|
D|----------|

Then play:
G|-----------|
D|------7777-|
A|-5555------|
D|-----------|


Verse:
G|------------------------------------------------------|
D|------------------------------------------------------|
A|------------------------------------------------------|
D|-0000000000-33-55-777777777-55555555-33333333-7777-88-|
  "No one ever thought"...

G|------------------------------------------------------|
D|------------------------------------------------------|
A|------------------------------------------------------|
D|-0000000000-33-55-777777777-55555555-33333333-7777-88-|
 "Now she clings to life"...

G|------------------------------------------------------|
D|------------------------------------------------------|
A|------------------------------------------------------|
D|-0000000000-33-55-777777777-55555555-33333333-7777-88-|
  "Always said her life"....
 
G|------------------------------------------------------|
D|------------------------------------------------------|
A|------------------------------------------------------|
D|-0000000000-33-55-777777777-55555555-33333333-7-7-7-7-|
  "Well beyond your window"...



Chorus:
G|------------------------------------------------------------------------|
D|------------------------------------------------------------------------|
A|-11111111-000000000-------------------00000000-44444444-----------------|
D|--------------------55555555-33333333-------------------0-0-0-0-222-333-|
  "Veronika, Saint Veronika".....

G|------------------------------------------------------------------------|
D|-------8---------7--------5--------3--------7---------------------------|
A|-----------------------------------------------44444444-----------------|
D|-888888-8-7777777-7-555555-5-333333-3-777777-7----------0-0-0-0-222-333-|
  "So be strong enough"....



Bridge: (At the start if this, give your hand a shake, and relax your
fingers for what's coming up)
G|-----------------------------------------------------------------|
D|-----------------------------------------------------------------|
A|-----------------------------------------------------------------|
D|-----------------------------------------------------------------|

G|-----------------------------------------------------------------|
D|----------------------------------------------------5-7-5--------|
A|----------------------------------0-0-7-0-8-0-5-0-7-------8-7-8--|
D|-0-0-7-0-8-0-5-0-7-0-3-0-5-3-2-3---------------------------------|

G|-----------------------------------------------|
D|-----------------------------------------------|
A|-----7-0-8-0-5-0-7-3---------------------------|
D|-5-5------------------8-7-5-7-333333-53-222222-|

G|-----------------------------------------------------------------|
D|----------------------------------------------------5-7-5--------|
A|----------------------------------0-0-7-0-8-0-5-0-7-------8-7-8--|
D|-0-0-7-0-8-0-5-0-7-0-3-0-5-3-2-3---------------------------------|

G|-----------------------------------------|
D|-----------------------------------------|
A|-----7-0-8-0-5-0-7-3---------------------|
D|-5-5------------------8-7-5-7-3-3-53-2-2-|

G|-----------------------------------------------------------------|
D|----------------------------------------------------5-7-5--------|
A|----------------------------------0-0-7-0-8-0-5-0-7-------8-7-8--|
D|-0-0-7-0-8-0-5-0-7-0-3-0-5-3-2-3---------------------------------|

G|-----------------------------------------|
D|-----------------------------------------|
A|-----7-0-8-0-5-0-7-3---------------------|
D|-5-5------------------8-7-5-7-3-3-53-2-2-|



G|------------------------------------------|
D|------------------------------------------|
A|-----------0~-----------------------------|
D|-0~------------------5~--------3-3-53-2-2-|
  "And while the angels sleep"...

G|------------------------------------------|
D|------------------------------------------|
A|-----------0~-----------------------------|
D|-0~------------------5~--------3-3-53-2-2-|
  "And though the sacred hearts"...


G|---------------------------------------------------------------|
D|---------------------------------------------------------------|
A|---------------0~--0-0-0-0-------------------------------------|
D|-0~--0-0-0-0-0-------------5~--5-5-5-5---7-5-3-3--5-3-2-2--3-2-|
  "Dear God"

G|---------------------------------------------------------------|
D|---------------------------------------------------------------|
A|---------------0~--0-0-0-0-------------------------------------|
D|-0~--0-0-0-0-0-------------5~--5-5-5-5---7-5-3-3--5-3-2-2--3-2-|
  "Dear God"

Play after:
G|-------|
D|-------|
A|-------|
D|--8/0--|


-Second bridge; no bass-


G|-----------------|
D|-----------------|
A|-----------------|
D|-0-0-0-0-222-333-|

Chorus:
G|------------------------------------------------------------------------|
D|------------------------------------------------------------------------|
A|-11111111-000000000-------------------00000000-44444444-----------------|
D|--------------------55555555-33333333-------------------0-0-0-0-222-333-|
  "Veronika, Saint Veronika".....

G|------------------------------------------------------------------------|
D|------------------------------------------------------------------------|
A|-11111111-000000000-------------------00000000-44444444-----------------|
D|--------------------55555555-33333333-------------------0-0-0-0-222-333-|
  "So be strong enough"....

G|------------------------------------------------------------------------|
D|-------8---------7--------5--------3--------7---------------------------|
A|-----------------------------------------------44444444-----------------|
D|-888888-8-7777777-7-555555-5-333333-3-777777-7----------0-0-0-0-222-333-|
  "Oh Veronika, Saint Veronika"...


Outro: (3 x)
G|----------|
D|----------|
A|--555555--|
D|----------|

Then play:
G|-----------|
D|------7777-|
A|-5555------|
D|-----------|


            
            
Suggest correction
Creating personal tab
Creating personal tab
You can edit any tab online and save it as your Personal.

You can edit, replace or remove any tab part or add personal notes – all changes will be seen only by you.

Personal tabs can be accessed anytime from any device, even offline.
Learn more »
comments
print report bad tab
2 comments total.
0 reply
Deedee17 10 Feb 18, 2014 02:25 PM

I've got a question; why does it say the strings are GDAD when on a bass it's EADG? Just a little confused :s

0 reply
B.C.RichRulz 331 Feb 22, 2014 11:32 AM

"Deedee17" as stated above the tab is in Dropped D tuning which means of corse the E string is "dropped" a full step. (from E to D) and the rest of the string are kept standard.

guest
You may want to rate the tab now too:
select rating
Wanna post a correction for this tab? Suggest correction