Oops, an error
Loading. Please wait.

Tears Into Wine tab

version 1
version 1

Whole song

Interactive

32,898 views 15 this week
2 commentsread comments
1 2 3 4 5
x 6
add to favorites
×
Save as Personal and add changes to this tab that will be seen only by you. Learn more ›
×
You can save this tab as Personal to edit and correct it or add notes. All changes will be seen only by you. Learn more »
launch autoscroll
font size
0
reset
how to read this tab
guitar tuner
backing track
0:00
0:00
edit
Autoscroll
slow
fast
+/-
esc
set tempo
stop
Intro:
e----------------------------------------------------------------------|
h--------6-------------------------------------------------------------|
G--6-----------8-----6----5-----3--------------3-----5-----6-----3-----|
D-------------------------------------6--3h6---------------------------|
A----------------------------------------------------------------------|
D-----8-----8-----8-----8----3-----3--------------4-----4-----4-----4--|


e----------------------------------------------------------------------|
h----------------------------------------------------------------------|
G--------------------------------3-----3h5p3-----------3-----3h5p3-----|
D--6-----4-----3-----3-----4---------------------3---------------------|
A-----4-----4-----4-----4---------------------------4-----4---------4--|
D-----------------------------1-----1---------1------------------------|

e----------------------------------------------------------------------|
h----------------------------------------------------------------------|
G--------3-----3h5p3-----6-----6-----5-----5---------------------------|
D-----2----------------------------------------------------------------|
A--3--------3---------3------------------------------------------------|
D---------------------------3-----3-----3-----3------------------------|

e----------------------------------------------------------------------|
h--------6-------------------------------------------------------4-----|
G--6-----------8-----6----5-----3--------------3-----5-----6-----------|
D-------------------------------------6--3h6---------------------------|
A----------------------------------------------------------------------|
D-----8-----8-----8-----8----3-----3--------------4-----4-----4-----4--|


e----------------------------------------------------------------------|
h--6-----7-----6-----6-------------------------------------------------|
G-----------------------------3-----3h5p3-----------3-----3h5p3--------|
D-----------------------4---------------------3------------------------|
A-----4-----4-----4------------------------------4-----4---------4-----|
D--------------------------1-----1---------1---------------------------|

e----------------------------------------------------------------------|
h----------------------------------------------------------------------|
G--------3-----3h5p3-----6-----6-----5-----5---------------------------|
D-----2----------------------------------------------------------------|
A--3--------3---------3------------------------------------------------|
D---------------------------3-----3-----3-----3------------------------|

Verse:
PM    . . . . . . . . . . . . . . . . . . . . . . . . . . . . . .
e----------------------------------------------------------------------|
h----------------------------------------------------------------------|
G-----------------6-6-6-6-6-6-6-6-----------------6-6-6-6-6-6-6-6------|
D-8-8-8-8-8-8-8-8-6-6-6-6-6-6-6-6-4-4-4-4-4-4-4-4-6-6-6-6-6-6-6-6------|
A-8-8-8-8-8-8-8-8-4-4-4-4-4-4-4-4-4-4-4-4-4-4-4-4-4-4-4-4-4-4-4-4------|
D-8-8-8-8-8-8-8-8-----------------4-4-4-4-4-4-4-4----------------------|

PM. . . . . . . . . . . . . . . . . . . .
e----------------------------------------------------------------------|
h----------------------------------------------------------------------|
G-----------------3-3-3-3-3-3-3-3---------5-5-5-5-6--6--6--9--9--------|
D-1-1-1-1-1-1-1-1-3-3-3-3-3-3-3-3-3-3-3-3-3-3-3-3-4--4--4--7--7--------|
A-1-1-1-1-1-1-1-1-1-1-1-1-1-1-1-1-3-3-3-3-3-3-3-3-4--4--4--7--7--------|
D-1-1-1-1-1-1-1-1-----------------3-3-3-3-3-3-3-3-4--4--4--7--7--------|

                                                  3  3  3
PM    . . . . . . . . . . . . . . . . . . . . . . . . . . . . . .
e----------------------------------------------------------------------|
h----------------------------------------------------------------------|
G-----------------6-6-6-6-6-6-6-6-----------------6-6-6-6-6-6-6-6------|
D-8-8-8-8-8-8-8-8-6-6-6-6-6-6-6-6-4-4-4-4-4-4-4-4-6-6-6-6-6-6-6-6------|
A-8-8-8-8-8-8-8-8-4-4-4-4-4-4-4-4-4-4-4-4-4-4-4-4-4-4-4-4-4-4-4-4------|
D-8-8-8-8-8-8-8-8-----------------4-4-4-4-4-4-4-4----------------------|

PM. . . . . . . . . . . . . . . . . . . .
e-----------------------------------------------------------------------|
h-----------------------------------------------------------------------|
G-----------------3-3-3-3-3-3-3-3-5-5-5-5-5-5-5-5-6-----6-----5-----5---|
D-1-1-1-1-1-1-1-1-3-3-3-3-3-3-3-3-5-5-5-5-5-5-5-5-----------------------|
A-1-1-1-1-1-1-1-1-1-1-1-1-1-1-1-1-3-3-3-3-3-3-3-3-----------------------|
D-1-1-1-1-1-1-1-1-----------------------------------3-----3-----3-----3-|

Pre-Chorus:
e-----------------------------|    -----------2------------------------|
h-7---------2--------2--------|    --7--------4------------------------|
G-6------------------------3--|    --6-----6--3------------------------|
D-4------3--------3-----------| 2x --4--6--6--1------------------------|
A-4---1--------1--------1-----|    --4--6--4--1------------------------|
D-4---------------------------|    --4--6-----1------------------------|

Chorus:
e--------------------------------------------------------------------------|
h----------2-2-2-2-2-2-2-2-6-6-6-6-6-6-6-6-----------------6-6-6-6-6-6-6-6-|
G--6-6-5-5-3-3-3-3-3-3-3-3-6-6-6-6-6-6-6-6-----------------6-6-6-6-6-6-6-6-|
D--6-6-3-3-3-3-3-3-3-3-3-3-6-6-6-6-6-6-6-6-8-8-8-8-8-6-8-6-6-6-6-6-6-6-6-6-|
A--4-4-3-3-1-1-1-1-1-1-1-1-4-4-4-4-4-4-4-4-4-4-4-4-4-4-4-4-4-4-4-4-4-4-4-4-|
D------3-3---------------------------------4-4-4-4-4-4-4-4-----------------|

e-------------------------------------------------------------------------|
h-----------------2-2-2-2-2-2-2-2-----------------------------------------|
G-3-3-3-3-3-1-3-1-3-3-3-3-3-3-3-3-----------------------------------------|
D-1-1-1-1-1-1-1-1-3-3-3-3-3-3-3-3-3-3-3-3-3-3-3-3-4--4--4--1--1-----------|
A-1-1-1-1-1-1-1-1-1-1-1-1-1-1-1-1-3-3-3-3-3-3-3-3-4--4--4--1--1-----------|
D-1-1-1-1-1-1-1-1-----------------3-3-3-3-3-3-3-3-4--4--4--1--1-----------|

                                                  3  3  3

1st half of the intro:

e----------------------------------------------------------------------|
h--------6-------------------------------------------------------------|
G--6-----------8-----6----5-----3--------------3-----5-----6-----3-----|
D-------------------------------------6--3h6---------------------------|
A----------------------------------------------------------------------|
D-----8-----8-----8-----8----3-----3--------------4-----4-----4-----4--|


e----------------------------------------------------------------------|
h----------------------------------------------------------------------|
G--------------------------------3-----3h5p3-----------3-----3h5p3-----|
D--6-----4-----3-----3-----4---------------------3---------------------|
A-----4-----4-----4-----4---------------------------4-----4---------4--|
D-----------------------------1-----1---------1------------------------|

e----------------------------------------------------------------------|
h----------------------------------------------------------------------|
G--------3-----3h5p3-----6-----6-----5-----5---------------------------|
D-----2----------------------------------------------------------------|
A--3--------3---------3------------------------------------------------|
D---------------------------3-----3-----3-----3------------------------|

Verse:

PM    . . . . . . . . . . . . . . . . . . . . . . . . . . . . . .
e----------------------------------------------------------------------|
h----------------------------------------------------------------------|
G-----------------6-6-6-6-6-6-6-6-----------------6-6-6-6-6-6-6-6------|
D-8-8-8-8-8-8-8-8-6-6-6-6-6-6-6-6-4-4-4-4-4-4-4-4-6-6-6-6-6-6-6-6------|
A-8-8-8-8-8-8-8-8-4-4-4-4-4-4-4-4-4-4-4-4-4-4-4-4-4-4-4-4-4-4-4-4------|
D-8-8-8-8-8-8-8-8-----------------4-4-4-4-4-4-4-4----------------------|

PM. . . . . . . . . . . . . . . . . . . .
e----------------------------------------------------------------------|
h----------------------------------------------------------------------|
G-----------------3-3-3-3-3-3-3-3---------5-5-5-5-6--6--6--9--9--------|
D-1-1-1-1-1-1-1-1-3-3-3-3-3-3-3-3-3-3-3-3-3-3-3-3-4--4--4--7--7--------|
A-1-1-1-1-1-1-1-1-1-1-1-1-1-1-1-1-3-3-3-3-3-3-3-3-4--4--4--7--7--------|
D-1-1-1-1-1-1-1-1-----------------3-3-3-3-3-3-3-3-4--4--4--7--7--------|

                                                  3  3  3
PM    . . . . . . . . . . . . . . . . . . . . . . . . . . . . . .
e----------------------------------------------------------------------|
h----------------------------------------------------------------------|
G-----------------6-6-6-6-6-6-6-6-----------------6-6-6-6-6-6-6-6------|
D-8-8-8-8-8-8-8-8-6-6-6-6-6-6-6-6-4-4-4-4-4-4-4-4-6-6-6-6-6-6-6-6------|
A-8-8-8-8-8-8-8-8-4-4-4-4-4-4-4-4-4-4-4-4-4-4-4-4-4-4-4-4-4-4-4-4------|
D-8-8-8-8-8-8-8-8-----------------4-4-4-4-4-4-4-4----------------------|

PM. . . . . . . . . . . . . . . . . . . .
e-----------------------------------------------------------------------|
h-----------------------------------------------------------------------|
G-----------------3-3-3-3-3-3-3-3-5-5-5-5-5-5-5-5-6-----6-----5-----5---|
D-1-1-1-1-1-1-1-1-3-3-3-3-3-3-3-3-5-5-5-5-5-5-5-5-----------------------|
A-1-1-1-1-1-1-1-1-1-1-1-1-1-1-1-1-3-3-3-3-3-3-3-3-----------------------|
D-1-1-1-1-1-1-1-1-----------------------------------3-----3-----3-----3-|

Pre-Chorus:
e-----------------------------|    -----------2------------------------|
h-7---------2--------2--------|    --7--------4------------------------|
G-6------------------------3--|    --6-----6--3------------------------|
D-4------3--------3-----------| 2x --4--6--6--1------------------------|
A-4---1--------1--------1-----|    --4--6--4--1------------------------|
D-4---------------------------|    --4--6-----1------------------------|

Chorus:
e--------------------------------------------------------------------------|
h----------2-2-2-2-2-2-2-2-6-6-6-6-6-6-6-6-----------------6-6-6-6-6-6-6-6-|
G--6-6-5-5-3-3-3-3-3-3-3-3-6-6-6-6-6-6-6-6-----------------6-6-6-6-6-6-6-6-|
D--6-6-3-3-3-3-3-3-3-3-3-3-6-6-6-6-6-6-6-6-8-8-8-8-8-6-8-6-6-6-6-6-6-6-6-6-|
A--4-4-3-3-1-1-1-1-1-1-1-1-4-4-4-4-4-4-4-4-4-4-4-4-4-4-4-4-4-4-4-4-4-4-4-4-|
D------3-3---------------------------------4-4-4-4-4-4-4-4-----------------|

e---------------------------------------------------------------------|
h-----------------2-2-2-2-2-2-2-2-------------------------------------|
G-3-3-3-3-3-1-3-1-3-3-3-3-3-3-3-3-------------------------------------| 2x
D-1-1-1-1-1-1-1-1-3-3-3-3-3-3-3-3-3-3-3-3-3-3-3-3-4--4--4--1--3-------|
A-1-1-1-1-1-1-1-1-1-1-1-1-1-1-1-1-3-3-3-3-3-3-3-3-4--4--4--1--1-------|
D-1-1-1-1-1-1-1-1-----------------3-3-3-3-3-3-3-3-4--4--4--1--1-------|

                                                  3  3  3

Solo:
e----------------------------------------------------------------------------|
h----------------------------------------------------------------------------|
G-3-----3-5-6b----------------------5-6b----------8-8-8-6-5-6-8-5-6--5-----6-|
D---3----------6-4-3-----8--6---6-8------6-4-3--------------------------8----|
A-----4--------------4--------9----------------4-----------------------------|
D----------------------------------------------------------------------------|

e-5~-------------------------------------------------------------------------|
h-6~--7--7--7--4-----11-----------11-13-14--9------------11--9----9-11-13-14-|
G-5~--6--6--6--3--10-----10----10--------------11-10-----------11------------|
D---------------------------11-----------------------11----------------------|
A----------------------------------------------------------------------------|
D----------------------------------------------------------------------------|
      3  3  3

e-----------------------------------------------------------------------|
h-9---------------------------11---------------11---10------------------|
G---11-10-----8--10-8-10-8-10-----10-8----------------------------------|
D---------11---------------------------11-8~----------------------------|
A-----------------------------------------------------------------------|
D-----------------------------------------------------------------------|

Bridge:
PM.  .  .
e---------------------------------------------------------------|
h----------7~-------2------2----------2-----2-------------------|
G----------6~------------------3----------------3---------------|
D-4--4--4--4~-----3------3----------3-----3---------------------| 4x
A-4--4--4--4~---1------1-----1----1-----1-----1-----------------|
D-4--4--4--4~---------------------------------------------------|
  3  3  3

e-----------------------------|    -----------2---------------------|
h-----------------------------|    --7--------4---------------------|
G------------6----------------|    --6-----6--3---------------------|
D-4--4--4--4-6--8--8--8--8-3--| 2x --4--6--6--1---------------------|
A-4--4--4--4-4--8--8--8--8-3--|    --4--6--4--1---------------------|
D-4--4--4--4----8--8--8--8-3--|    --4--6-----1---------------------|
  3  3  3       3  3  3

Chorus:
e--------------------------------------------------------------------------|
h----------2-2-2-2-2-2-2-2-6-6-6-6-6-6-6-6-----------------6-6-6-6-6-6-6-6-|
G--6-6-5-5-3-3-3-3-3-3-3-3-6-6-6-6-6-6-6-6-----------------6-6-6-6-6-6-6-6-|
D--6-6-3-3-3-3-3-3-3-3-3-3-6-6-6-6-6-6-6-6-8-8-8-8-8-6-8-6-6-6-6-6-6-6-6-6-|
A--4-4-3-3-1-1-1-1-1-1-1-1-4-4-4-4-4-4-4-4-4-4-4-4-4-4-4-4-4-4-4-4-4-4-4-4-|
D------3-3---------------------------------4-4-4-4-4-4-4-4-----------------|

e---------------------------------------------------------------------|
h-----------------2-2-2-2-2-2-2-2-------------------------------------|
G-3-3-3-3-3-1-3-1-3-3-3-3-3-3-3-3-------------------------------------|
D-1-1-1-1-1-1-1-1-3-3-3-3-3-3-3-3-3-3-3-3-3-3-3-3-4--4--4--1--1-------| 2x
A-1-1-1-1-1-1-1-1-1-1-1-1-1-1-1-1-3-3-3-3-3-3-3-3-4--4--4--1--1-------|
D-1-1-1-1-1-1-1-1-----------------3-3-3-3-3-3-3-3-4--4--4--1--1-------|

                                                  3  3  3
2nd half of the intro:

e----------------------------------------------------------------------|
h--------6-------------------------------------------------------4-----|
G--6-----------8-----6----5-----3--------------3-----5-----6-----------|
D-------------------------------------6--3h6---------------------------|
A----------------------------------------------------------------------|
D-----8-----8-----8-----8----3-----3--------------4-----4-----4-----4--|


e----------------------------------------------------------------------|
h--6-----7-----6-----6-------------------------------------------------|
G-----------------------------3-----3h5p3-----------3-----3h5p3--------|
D-----------------------4---------------------3------------------------|
A-----4-----4-----4------------------------------4-----4---------4-----|
D--------------------------1-----1---------1---------------------------|

e---------------------------------------|
h---------------------------------------|
G---5-5-5-5-5-5-5-5-6--6--6--3--3-------|
D---3-3-3-3-3-3-3-3-4--4--4--1--1-------|
A---3-3-3-3-3-3-3-3-4--4--4--1--1-------|
D---3-3-3-3-3-3-3-3-4--4--4--1--1-------|

                                                  3  3  3
End:

e----------------------------------------------------------------|
h----------------------------------------------------------------|
G--6~------------------------------------------------------------|
D--8~------------------------------------------------------------|
A--8~------------------------------------------------------------|
D--8~------------------------------------------------------------|

:)have fun!

            
            
Suggest correction
Creating personal tab
Creating personal tab
You can edit any tab online and save it as your Personal.

You can edit, replace or remove any tab part or add personal notes – all changes will be seen only by you.

Personal tabs can be accessed anytime from any device, even offline.
Learn more »
comments
print report bad tab
2 comments total.
0 reply
BTrz 188 Jun 21, 2009 07:26 AM

This song is in DROP C#!!!! good tab though 4*

0 reply
Bjunior 10 Jul 18, 2010 04:22 AM

yes better than ver.2

guest
You may want to rate the tab now too:
select rating
Wanna post a correction for this tab? Suggest correction