Oops, an error
Loading. Please wait.
We have an official The Dead Cant Testify tab made by UG professional guitarists. Check out the tab »
×
45,377 views 24 this week
10 commentsread comments
1 2 3 4 5
x 25
add to favorites
×
Save as Personal and add changes to this tab that will be seen only by you. Learn more ›
×
You can save this tab as Personal to edit and correct it or add notes. All changes will be seen only by you. Learn more »
launch autoscroll
font size
0
reset
how to read this tab
guitar tuner
backing track
0:00
0:00
edit
Autoscroll
slow
fast
+/-
esc
set tempo
stop
-------------------------------------------------------------------------------
                             The Dead Can’t Testify – Billy Talent
-------------------------------------------------------------------------------
Tabbed by:PT-E
Email:

(8.21.09) I edited some parts. this tab is from BT3 deluxe edition.

Tuning:Drop D


Intro
 (reversed in recording)
e|----6-----6------6-----6---|---5-----5-----5-----5---|---5-----5-----5-----5---|
B|------8-----8------8-----8-|-----7-----7-----7-----7-|-----7-----7-----7-----7-|
G|--7-----7-----7------7-----|-7-----7-----7-----7-----|-5-----5-----5-----5-----|
D|---------------------------|-------------------------|-------------------------|
A|---------------------------|-------------------------|-------------------------|
D|---------------------------|-------------------------|-------------------------|


e|---3-----3-----3-----3-------------------------------|
B|-----3-----3-----3-----3-----------------------------|
G|-3-----3-----3-----3---------------------------------|
D|-----------------------------------------------------|
A|-----------------------------------------------------|
D|-----------------------------------------------------|


e|---------------------------------------------------------------------------|
B|---------------------------------------------------------------------------|
G|---------------------------------------------------------------------------|
D|---------------------------------------------------------------------------|
A|---------------------------------------------------------------------------|
D|-0-5h8-8p5-5h8-8p5-5h8-8p5-5h8-8p5-----------------------------------------|

Guitar 1  2x
e|---------------------------------------------------------------------------|
B|---------------------------------------------------------------------------|
G|---------------------------------------------------------------------------|
D|---------------------------------------------------------------------------|
A|---------------------------------------------------------------------------|
D|-0-5h8-0-8p5-0-0-5h8-0-8p5--0-7h10-0-10p7-0-0-7h10-0-10p7------------------|

e|---------------------------------------------------------------------------|
B|---------------------------------------------------------------------------|
G|---------------------------------------------------------------------------|
D|---------------------------------------------------------------------------|
A|---------------------------------------------------------------------------|
D|-0-4h7-0-7p4-0-0-4h7-0-7p4--0-5h8-0-8p5-0-0-5h8-0-8p5----------------------|

Guitar 2   2x
e|--------------------|
B|--------------------|
G|-------------5-7----|
D|-------5-7-8--------|
A|-5-7-9--------------|
D|--------------------|


 Verse
e|--6------------------5-------------------8-------------------6-------------|
B|--8------------------7-------------------7-------------------8-------------|
G|--7------------------7-------------------7-------------------7-------------|
D|---------------------------------------------------------------------------|
A|---------------------------------------------------------------------------|
D|---------------------------------------------------------------------------|

e|--6------------------5-------------------5-------------------3-------------|
B|--8------------------7-------------------7-------------------3-------------|
G|--7------------------7-------------------5-------------------3-------------|
D|---------------------------------------------------------------------------|
A|---------------------------------------------------------------------------|
D|---------------------------------------------------------------------------|




  2x Pre-chorus
 Guitar 1
e|---------------------------------------------------------------------------|
B|---------------------------------------------------------------------------|
G|---------------------------------------------------------------------------|
D|-------1-------------------------------------------------------------------|
A|-------1-------------------------------------------------------------------|
D|-------1----------------0-5h7-0-7p5-0-0-5h7-0-7p5--------------------------|
  
 Guitar 2
e|-------3-------------------------------------------------------------------|
B|-------4-------------------------------------------------------------------|
G|-------3-------------------------------------------------------------------|
D|---------------------------------------------------------------------------|
A|---------------------------------------------------------------------------|
D|---------------------------------------------------------------------------|

 Guitar1
e|----------------------------------------------------------------------------|
B|----------------------------------------7-7-7-7-7-7-7-7-8-10101010101010----|
G|----------------------------------------7-7-7-7-7-7-7-7-7-7-7-7-7-7-7-7-----|
D|-------1------------------5--7--8--10---7-7-7-7-7-7-7-7-7-7-7-7-7-7-7-7-----|
A|-------1------------------5--7--8--10---5-5-5-5-5-5-5-5-5-5-5-5-5-5-5-5-----|
D|-------1---------4--------5--7--8--10---0-0-0-0-0-0-0-0-0-0-0-0-0-0-0-0-12\-|

 Guitar 2
e|-------3---------2--------3-----3-------2-----------------------------------|
B|-------4---------4--------3-----3-------3-----------------------------------|
G|-------3---------2--------3-----3-------2-----------------------------------|
D|---------------------------------------------------------------------------|
A|---------------------------------------------------------------------------|
D|---------------------------------------------------------------------------|


Chorus 2x
 Guitar 1
e|---------------------------------------------------------------------------|
B|---------------------------------------------------------------------------|
G|---------------------------------------------------------------------------|
D|---------------------------------------------------------------------------|
A|---------------------------------------------------------------------------|
D|-0-5h8-0-8p5-0-0-5h8-0-8p5--0-7h10-0-10p7-0-0-7h10-0-10p7------------------|

e|---------------------------------------------------------------------------|
B|---------------------------------------------------------------------------|
G|---------------------------------------------------------------------------|
D|---------------------------------------------------------------------------|
A|---------------------------------------------------------------------------|
D|-0-4h7-0-7p4-0-0-4h7-0-7p4--0-5h8-0-8p5-0-0-5h8-0-8p5----------------------|


  Guitar 2   2x
e|--------------------|
B|--------------------|
G|-------------5-7----|
D|-------5-7-8--------|
A|-5-7-9--------------|
D|--------------------|


Pre-chorus 2x


Chorus 2x
  2x
e|---------------------------------------------------------------------------|
B|-3--3--------------------4--4--4--4-3--------------------------------------|
G|-3--3--------------------5--5--5--5-3--------------------------------------|
D|-3--3--0-1-3--3--3--3-0--5--5--5--5-3--5--5--5--5-7------------------------|
A|-1--1--0-1-3--3--3--3-0--3--3--3--3-3--5--5--5--5-7------------------------|
D|-------0-1-3--3--3--3-0----------------5--5--5--5-7------------------------|
  1x 
e|-----------------------------------------------------------------|
B|-3-3-3-3---------------------------------------------------------|
G|-3-3-3-3---------------------------------------------------------|
D|-3-3-3-3-0-1-3--3--3--3-0--1--1--1--1--0-8-8-8-7-5---------------|
A|-1-1-1-1-0-1-3--3--3--3-0--1--1--1--1--0-5-5-5-5-5---------------|
D|---------0-1-3--3--3--3-0--1--1--1--1--0-5-5-5-5-5---------------|

e|--------------------------------------|
B|--7-7-7-7-7-7-7-7-8-10101010101010----|
G|--7-7-7-7-7-7-7-7-7-7-7-7-7-7-7-7-----|
D|--7-7-7-7-7-7-7-7-7-7-7-7-7-7-7-7-----|
A|--5-5-5-5-5-5-5-5-5-5-5-5-5-5-5-5-----|
D|--0-0-0-0-0-0-0-0-0-0-0-0-0-0-0-0-12\-|

 Solo 2x
e|---------------------------------------------------------------------------|
B|---------------------------------------------------------------------------|
G|-------------5-7p0---------7h8-7p0------7p0--------------------------------|
D|-------5-7-8-------8p0-5p0---------10p8-----8h10-12p0-7p0-----10-8-7-------|
A|-5-7-9----------------------------------------------------9p0--------------|
D|---------------------------------------------------------------------------|

e|---------------------------------------------------------------------------|
B|---------------------------------------------------------------------------|
G|---------------------------------------------------------------------------|
D|-7h8-10p0-7p0-----10h12-10p0-8p7-10p0-5h7-8p0-5p0-8p0-7p5------------------|
A|--------------9p0----------------------------------------------------------|
D|---------------------------------------------------------------------------|


Pre-Chorus 2x


Chorus 2x

Outro
e|---------------------------------------------------------------------------|
B|---------------------------------------------------------------------------|
G|---------------------------------------------------------------------------|
D|---------------------------------------------------------------------------|
A|---------------------------------------------------------------------------|
D|-0-5h8-8p5-5h8-8p5-5h8-8p5-5h8-8p5-----------------------------------------|


e|---------------------------------------------------------------------------|
B|---------------------------------------------------------------------------|
G|---------------------------------------------------------------------------|
D|---------------------------------------------------------------------------|
A|---------------------------------------------------------------------------|
D|-0-5h8-0-8p5-0-0-5h8-0-8p5--0-5h8-0-8p5-0-0-5h8-0-8p5----------------------|




| /  slide up
| \  slide down
| h  hammer-on
| p  pull-off
| ~  vibrato
| +  harmonic
| x  Mute note
===============================================================================


            
            
Suggest correction
Creating personal tab
Creating personal tab
You can edit any tab online and save it as your Personal.

You can edit, replace or remove any tab part or add personal notes – all changes will be seen only by you.

Personal tabs can be accessed anytime from any device, even offline.
Learn more »
comments
print report bad tab
10 comments total. Showing first comments.
0 reply
av0n 125 Aug 31, 2009 06:36 AM

Why does this have 4 Stars?! These are the official tabs from the Guitar Villain Edition...enough idiots in here

0 reply
johnnyoc3 131 Oct 02, 2009 02:36 PM

i just saw them live and ian uses slides instead of hammer ons

0-5h8-0-8p5 is 0-5/8-0-8/5

0 reply
PT-E 371 Oct 03, 2009 01:43 AM

maybe it's the live version. cause in the guitar villain edition it says 0-5h8-0-8p5

guest
You may want to rate the tab now too:
select rating
Wanna post a correction for this tab? Suggest correction