Oops, an error
Loading. Please wait.
We have an official This Suffering tab made by UG professional guitarists. Check out the tab »
×
106,652 views 39 this week
20 commentsread comments
1 2 3 4 5
x 58
add to favorites
×
Save as Personal and add changes to this tab that will be seen only by you. Learn more ›
×
You can save this tab as Personal to edit and correct it or add notes. All changes will be seen only by you. Learn more »
launch autoscroll
font size
0
reset
how to read this tab
guitar tuner
backing track
0:00
0:00
edit
Autoscroll
slow
fast
+/-
esc
set tempo
stop
Tuning   Drop D Tuning (DADGBe)


One of my favourite songs off Billy Talent II... hope it becomes a single...

UPDATE - Thanks to george92 for correcting the verse and the bridge!


[Intro]

             P                                                         x2
e|-----------------------------------------------------------------------|
B|----------------------------------13------------------8----------------|
G|--------14------------------12----------------7---9--------------------|
D|--15----------15------14------------------8----------------------------|
A|--------------12------------------------------------------8-7-5\3-0----|
D|-----12----12-12---------10----10-----------5---5---5-------------0----|

                                                                       x2
e|-----------------------------------------------------------------------|
B|----------------------------------13b--\--------------8----------------|
G|--------14------------------12----------------7---9--------------------|
D|--15----------15--15--14------------------8----------------------------|
A|-----12----12-12--12-----10----10-----------5---5---5---5-8-7-5\3-0----|
D|-----12----12-12--12-----10----10-----------5---5---5---5---------0----|


[Verse]

    H                   H                                              x2
e|--5-------------------3------------------------------------------------|
B|--6-------------------5-------------------------------8----------------|
G|--7-------------------3-----------------------7---9--------------------|
D|--7-------------------5-------------------8----------------------------|
A|--5-------------------3---------------------5---5---5---5-8-7-5\3-0----|
D|--------------------------------------------5---5---5---5---------0----|

                                                                       x2
e|-----5-5-----5-----------3-3-----3-------------------------------------|
B|-----6-6-----6-----------5-5-----5--------------------8----------------|
G|-----7-7-----7-----------3-3-----3------------7---9--------------------|
D|-----7-7-----7-----------5-5-----5--------8----------------------------|
A|--0--5-5-----5--------0--3-3-----3----------5---5---5---5-8-7-5\3-0----|
D|--0-------------------0---------------------5---5---5---5---------0----|


At the second note of PRE-CHORUS, another guitar plays:
e|-----|
B|--3--|
G|--3--|
D|--3--|
A|--1--|
D|-----|
which is held until it fades out.


[Pre-Chorus]

e|-----------------------------------------------------------------------|
B|----3---3---3---3---3---3---5---6---3---3---3---3---3---3---5---6------|
G|--3---3---3---3---3---3---3---3---2---2---2---2---2---2---2---2--------|
D|-----------------------------------------------------------------------|
A|-----------------------------------------------------------------------|
D|-----------------------------------------------------------------------|

e|----6---6-----------6---6-----------5---5---5---5---3---3---3---3------|
B|----3---3---5---6---3---3---5---6---6---6---6---6---5---5---5---5------|
G|--0---0---0---0---0---0---0---0---5---5---5---5---0---0---0---0--------|
D|-----------------------------------------------------------------------|
A|-----------------------------------------------------------------------|
D|-----------------------------------------------------------------------|


This fill is played just before CHORUS, filling in the extra space left
from PRE-CHORUS:
e|------|
B|--33--|
G|--33--|
D|--33--|
A|--11--|
D|------|


[Chorus]

e|-----------------------------------|--5-5-5-5-5-5-5-5-5-5-5-5-5-5-5-5--|
B|--3-3-3-3-3-3-3-3-3-3-3-3-3-3-3-3--|--6-6-6-6-6-6-6-6-6-6-6-6-6-6-6-6--|
G|--3-3-3-3-3-3-3-3-3-3-3-3-3-3-3-3--|--7-7-7-7-7-7-7-7-7-7-7-7-7-7-7-7--|
D|--3-3-3-3-3-3-3-3-3-3-3-3-3-3-3-3--|--7-7-7-7-7-7-7-7-7-7-7-7-7-7-7-7--|
A|--1-1-1-1-1-1-1-1-1-1-1-1-1-1-1-1--|--5-5-5-5-5-5-5-5-5-5-5-5-5-5-5-5--|
D|-----------------------------------|-----------------------------------|

                                                            H
e|-----------------------------------|-------------------|---------------|
B|-----------------------------------|-------------------|--5------------|
G|-----------------------------------|-------------------|--5------------|
D|--5-5-5-5-5-5-5-5-5-5-5-5-5-5-5-77-|--7-7-7-7-7-7-7-7--|--5------------|
A|--5-5-5-5-7-7-8-8-5-5-5-5-7-7-8-33-|--3-3-3-3-3-3-3-3--|--3------------|
D|--5-5-5-5-5-5-5-5-5-5-5-5-5-5-5-33-|--3-3-3-3-3-3-3-3--|---------------|


[Interlude]

e|-----------------------------------------------------------------------|
B|----------------------------------13b--\--------------8----------------|
G|--------14------------------12----------------7---9--------------------|
D|--15----------15--15--14------------------8-----------------------0----|
A|-----12----12-12--12-----10----10-----------5---5---5---5-8-7-5\3-0----|
D|-----12----12-12--12-----10----10-----------5---5---5---5---------0----|


VERSE: (Same as above)

PRE-CHORUS: (Same as above)

CHORUS: (Same as above, but played x2)


[Bridge]

PART 1: (x2)

e|-----------10-10-10---12-12-12---10-10-10----------------8--8--8----10-10-10---8--8--8---|
B|-----------10-10-10---10-10-10---10-10-10----------------10-10-10---10-10-10---10-10-10--|
G|--77-7-7---10-10-10---10-10-10---10-10-10----------------9--9--9----9--9--9----9--9--9---|
D|--77-7-7------------------------------------1010-10-10-----------------------------------|
A|--55-5-5------------------------------------7-7--7--7------------------------------------|
D|--00-0-0------------------------------------7-7--7--7------------------------------------|

e|---------------8-8-8---10-10-10--8-8-8---55--|--5-5-5-5-5-5-5-5--|--5-5-5-5-5-5-5-5------|
B|---------------6-6-6---6--6--6---6-6-6---66--|--6-6-6-6-6-6-6-6--|--5-5-5-5-5-5-5-5------|
G|---------------7-7-7---7--7--7---7-7-7---55--|--5-5-5-5-5-5-5-5--|--5-5-5-5-5-5-5-5------|
D|--1010-10-10-----------------------------33--|--3-3-3-3-3-3-3-3--|--2-2-2-2-2-2-2-2------|
A|--8-8--8--8------------------------------33--|--3-3-3-3-3-3-3-3--|--3-3-3-3-3-3-3-3------|
D|--8-8--8--8------------------------------33--|--3-3-3-3-3-3-3-3--|--2-2-2-2-2-2-2-2------|


PART 2:

e|--5-5-5-5-5-5-5-5-5-5-5-5-5-5-5-5--|--8--8--8--8--8--8--8--8--8--8--8--8--8--8--8--8-----|
B|--6-6-6-6-6-6-6-6-6-6-6-6-6-6-6-6--|--10-10-10-10-10-10-10-10-10-10-10-10-10-10-10-10----|
G|--7-7-7-7-7-7-7-7-7-7-7-7-7-7-7-7--|--9--9--9--9--9--9--9--9--9--9--9--9--9--9--9--9-----|
D|--7-7-7-7-7-7-7-7-7-7-7-7-7-7-7-7--|--7--7--7--7--7--7--7--7--7--7--7--7--7--7--7--7-----|
A|--5-5-5-5-5-5-5-5-5-5-5-5-5-5-5-5--|--7--7--7--7--7--7--7--7--7--7--7--7--7--7--7--7-----|
D|-----------------------------------|--7--7--7--7--7--7--7--7--7--7--7--7--7--7--7--7-----|

e|--8--8--8--8--8--8--8--8--8--8--8--8--8--8--8--8---|--5-5-5-5-5-5-5-5-|-5-5-5-5-5-5-5----|
B|--10-10-10-10-10-10-10-10-10-10-10-10-10-10-10-10--|--6-6-6-6-6-6-6-6-|-5-5-5-5-5-5-5----|
G|--10-10-10-10-10-10-10-10-10-10-10-10-10-10-10-10--|--5-5-5-5-5-5-5-5-|-5-5-5-5-5-5-5----|
D|--10-10-10-10-10-10-10-10-10-10-10-10-10-10-10-10--|--3-3-3-3-3-3-3-3-|-2-2-2-2-2-2-2----|
A|--8--8--8--8--8--8--8--8--8--8--8--8--8--8--8--8---|--3-3-3-3-3-3-3-3-|-3-3-3-3-3-3-3-0--|
D|--8--8--8--8--8--8--8--8--8--8--8--8--8--8--8--8---|--3-3-3-3-3-3-3-3-|-2-2-2-2-2-2-2-0--|


The first time it is played, at the second note of PRE-CHORUS, another guitar plays:
e|-----|
B|--3--|
G|--3--|
D|--3--|
A|--1--|
D|-----|
which is held until it fades out.


The second time it is played, at the first note of PRE-CHORUS, another guitar plays:
e|-------|
B|--333--|
G|--333--|
D|--333--|
A|--111--|
D|-------|
which is held until it fades out.


[Pre-Chorus]  (x2)

e|-----------------------------------------------------------------------|
B|----3---3---3---3---3---3---5---6---3---3---3---3---3---3---5---6------|
G|--3---3---3---3---3---3---3---3---2---2---2---2---2---2---2---2--------|
D|-----------------------------------------------------------------------|
A|-----------------------------------------------------------------------|
D|-----------------------------------------------------------------------|

e|----6---6-----------6---6-----------5---5---5---5---3---3---3---3------|
B|----3---3---5---6---3---3---5---6---6---6---6---6---5---5---5---5------|
G|--0---0---0---0---0---0---0---0---5---5---5---5---0---0---0---0--------|
D|-----------------------------------------------------------------------|
A|-----------------------------------------------------------------------|
D|-----------------------------------------------------------------------|


CHORUS: (Same as the first time, but played x3)


[Outro]

e|-----------------------------------------------------------------------|
B|----------------------------------13b--\--------------8----------------|
G|--------14------------------12----------------7---9--------------------|
D|--15----------15--15--14------------------8----------------------------|
A|-----12----12-12--12-----10----10-----------5---5---5---5-8-7-5\3-0----|
D|-----12----12-12--12-----10----10-----------5---5---5---5---------0----|



************************************

| H  hold chord/note
| P  palm muted chord/note
| b  bend string(s) slightly
| /  slide up
| \  slide down

************************************

            
            
Suggest correction
Creating personal tab
Creating personal tab
You can edit any tab online and save it as your Personal.

You can edit, replace or remove any tab part or add personal notes – all changes will be seen only by you.

Personal tabs can be accessed anytime from any device, even offline.
Learn more »
comments
print report bad tab
20 comments total. Showing first comments.
+2 reply
george92 135 Jul 14, 2006 01:00 PM

Great tab. just some minor corrections...

2nd chord in the verse is C7 not C

e|-------|
B|---5---|
G|---3---|
D|---5---|
A|---3---|
D|-------|

In the bridge it goes from F to Am/F#...

x8 x8
e|---5-----5-----|
B|---6-----5-----| The CD version has the bass notes but
G|---5-----5-----| Ian just plays F then Am live and lets
D|---3-----2-----| Jon have the bass notes.
A|---3-----3-----|
D|---3-----2-----|

0 reply
deadbolt 70 Aug 14, 2006 01:13 PM

looks good! that last verse part with the 8-7-9-8 is hard to hit the 5th fret and all those notes

0 reply
monachima505 187 Aug 15, 2006 07:49 AM

you just keep your index finger barring the two notes at the fifth fret the whole time, and you use your pinky and ring finger to hit the 8-7-9-8

guest
You may want to rate the tab now too:
select rating
Wanna post a correction for this tab? Suggest correction